  0
SECTION
  2
HEADER
  9
$ACADVER
  1
AC1009
  9
$INSBASE
 10
0.0
 20
0.0
 30
0.0
  9
$EXTMIN
 10
-170.0164782349211
 20
-265.7624475796872
 30
-0.0015258207003583
  9
$EXTMAX
 10
370.0164807494923
 20
537.08808227102497
 30
0.0000000349246037
  9
$LIMMIN
 10
0.0
 20
0.0
  9
$LIMMAX
 10
0.0
 20
0.0
  9
$ORTHOMODE
 70
     0
  9
$REGENMODE
 70
     1
  9
$FILLMODE
 70
     1
  9
$QTEXTMODE
 70
     0
  9
$MIRRTEXT
 70
     1
  9
$DRAGMODE
 70
     2
  9
$LTSCALE
 40
15.24
  9
$OSMODE
 70
   231
  9
$ATTMODE
 70
     1
  9
$TEXTSIZE
 40
0.0
  9
$TRACEWID
 40
1.0
  9
$TEXTSTYLE
  7
STANDARD
  9
$CLAYER
  8
DATA
  9
$CELTYPE
  6
BYLAYER
  9
$CECOLOR
 62
   256
  9
$DIMSCALE
 40
1.0
  9
$DIMASZ
 40
0.18
  9
$DIMEXO
 40
0.0625
  9
$DIMDLI
 40
0.38
  9
$DIMRND
 40
0.0
  9
$DIMDLE
 40
0.0
  9
$DIMEXE
 40
0.18
  9
$DIMTP
 40
0.0
  9
$DIMTM
 40
0.0
  9
$DIMTXT
 40
0.18
  9
$DIMCEN
 40
0.09
  9
$DIMTSZ
 40
0.0
  9
$DIMTOL
 70
     0
  9
$DIMLIM
 70
     0
  9
$DIMTIH
 70
     1
  9
$DIMTOH
 70
     1
  9
$DIMSE1
 70
     0
  9
$DIMSE2
 70
     0
  9
$DIMTAD
 70
     0
  9
$DIMZIN
 70
     0
  9
$DIMBLK
  1

  9
$DIMASO
 70
     1
  9
$DIMSHO
 70
     1
  9
$DIMPOST
  1

  9
$DIMAPOST
  1

  9
$DIMALT
 70
     0
  9
$DIMALTD
 70
     2
  9
$DIMALTF
 40
25.399999999999999
  9
$DIMLFAC
 40
1.0
  9
$DIMTOFL
 70
     0
  9
$DIMTVP
 40
0.0
  9
$DIMTIX
 70
     0
  9
$DIMSOXD
 70
     0
  9
$DIMSAH
 70
     0
  9
$DIMBLK1
  1

  9
$DIMBLK2
  1

  9
$DIMSTYLE
  2
STANDARD
  9
$DIMCLRD
 70
     0
  9
$DIMCLRE
 70
     0
  9
$DIMCLRT
 70
     0
  9
$DIMTFAC
 40
1.0
  9
$DIMGAP
 40
0.09
  9
$LUNITS
 70
     2
  9
$LUPREC
 70
     4
  9
$SKETCHINC
 40
0.1
  9
$FILLETRAD
 40
0.0
  9
$AUNITS
 70
     0
  9
$AUPREC
 70
     0
  9
$MENU
  1
acad
  9
$ELEVATION
 40
0.0
  9
$PELEVATION
 40
0.0
  9
$THICKNESS
 40
0.0
  9
$LIMCHECK
 70
     0
  9
$BLIPMODE
 70
     0
  9
$CHAMFERA
 40
0.0
  9
$CHAMFERB
 40
0.0
  9
$SKPOLY
 70
     0
  9
$TDCREATE
 40
2456864.6575115742
  9
$TDUPDATE
 40
2456864.6582993981
  9
$TDINDWG
 40
0.0004426273
  9
$TDUSRTIMER
 40
0.0004370718
  9
$USRTIMER
 70
     1
  9
$ANGBASE
 50
0.0
  9
$ANGDIR
 70
     0
  9
$PDMODE
 70
     1
  9
$PDSIZE
 40
-2.0
  9
$PLINEWID
 40
0.0
  9
$COORDS
 70
     2
  9
$SPLFRAME
 70
     0
  9
$SPLINETYPE
 70
     6
  9
$SPLINESEGS
 70
     8
  9
$ATTDIA
 70
     0
  9
$ATTREQ
 70
     1
  9
$HANDLING
 70
     1
  9
$HANDSEED
  5
784
  9
$SURFTAB1
 70
     6
  9
$SURFTAB2
 70
     6
  9
$SURFTYPE
 70
     6
  9
$SURFU
 70
     6
  9
$SURFV
 70
     6
  9
$UCSNAME
  2

  9
$UCSORG
 10
0.0
 20
0.0
 30
0.0
  9
$UCSXDIR
 10
1.0
 20
0.0
 30
0.0
  9
$UCSYDIR
 10
0.0
 20
1.0
 30
0.0
  9
$PUCSNAME
  2

  9
$PUCSORG
 10
0.0
 20
0.0
 30
0.0
  9
$PUCSXDIR
 10
1.0
 20
0.0
 30
0.0
  9
$PUCSYDIR
 10
0.0
 20
1.0
 30
0.0
  9
$USERI1
 70
     0
  9
$USERI2
 70
     0
  9
$USERI3
 70
     0
  9
$USERI4
 70
     0
  9
$USERI5
 70
     0
  9
$USERR1
 40
0.0
  9
$USERR2
 40
0.0
  9
$USERR3
 40
0.0
  9
$USERR4
 40
0.0
  9
$USERR5
 40
0.0
  9
$WORLDVIEW
 70
     1
  9
$SHADEDGE
 70
     3
  9
$SHADEDIF
 70
    70
  9
$TILEMODE
 70
     1
  9
$MAXACTVP
 70
    64
  9
$PLIMCHECK
 70
     0
  9
$PEXTMIN
 10
1.0000000000000000E+020
 20
1.0000000000000000E+020
 30
1.0000000000000000E+020
  9
$PEXTMAX
 10
-1.0000000000000000E+020
 20
-1.0000000000000000E+020
 30
-1.0000000000000000E+020
  9
$PLIMMIN
 10
0.0
 20
0.0
  9
$PLIMMAX
 10
12.0
 20
9.0
  9
$UNITMODE
 70
     0
  9
$VISRETAIN
 70
     0
  9
$PLINEGEN
 70
     1
  9
$PSLTSCALE
 70
     0
  0
ENDSEC
  0
SECTION
  2
TABLES
  0
TABLE
  2
VPORT
 70
     1
  0
VPORT
  2
*ACTIVE
 70
     0
 10
0.0
 20
0.0
 11
1.0
 21
1.0
 12
100.0000012572857
 22
136.46818686541801
 13
0.0
 23
0.0
 14
1.0
 24
1.0
 15
0.0
 25
0.0
 16
0.0
 26
0.0
 36
1.0
 17
0.0
 27
0.0
 37
0.0
 40
807.4031738174541
 41
2.436456996148908
 42
50.0
 43
0.0
 44
0.0
 50
0.0
 51
0.0
 71
     0
 72
  2000
 73
     1
 74
     1
 75
     0
 76
     0
 77
     0
 78
     0
  0
ENDTAB
  0
TABLE
  2
LTYPE
 70
    11
  0
LTYPE
  2
CONTINUOUS
 70
     0
  3
Solid line
 72
    65
 73
     0
 40
0.0
  0
ENDTAB
  0
TABLE
  2
LAYER
 70
     6
  0
LAYER
  2
0
 70
     0
 62
     7
  6
CONTINUOUS
  0
LAYER
  2
DATA
 70
     0
 62
     7
  6
CONTINUOUS
  0
LAYER
  2
HIBINO-BASE
 70
     0
 62
     7
  6
CONTINUOUS
  0
LAYER
  2
PATTERN_FILL
 70
     0
 62
     7
  6
CONTINUOUS
  0
LAYER
  2
SPEC
 70
     0
 62
     7
  6
CONTINUOUS
  0
LAYER
  2
DIMNSIONS
 70
     0
 62
     7
  6
CONTINUOUS
  0
ENDTAB
  0
TABLE
  2
STYLE
 70
     3
  0
STYLE
  2
STANDARD
 70
     0
 40
0.0
 41
1.0
 50
0.0
 71
     0
 42
0.0
  3
txt
  4
BIGFONT.SHX
  0
ENDTAB
  0
TABLE
  2
VIEW
 70
     0
  0
ENDTAB
  0
TABLE
  2
UCS
 70
     0
  0
ENDTAB
  0
TABLE
  2
APPID
 70
     4
  0
APPID
  2
ACAD
 70
     0
  0
APPID
  2
ACADANNOTATIVE
 70
     0
  0
APPID
  2
ACAD_NAV_VCDISPLAY
 70
     0
  0
APPID
  2
ACAD_MLEADERVER
 70
     0
  0
ENDTAB
  0
TABLE
  2
DIMSTYLE
 70
     2
  0
DIMSTYLE
  2
STANDARD
 70
     0
  3

  4

  5

  6

  7

 40
1.0
 41
0.18
 42
0.0625
 43
0.38
 44
0.18
 45
0.0
 46
0.0
 47
0.0
 48
0.0
140
0.18
141
0.09
142
0.0
143
25.399999999999999
144
1.0
145
0.0
146
1.0
147
0.09
 71
     0
 72
     0
 73
     1
 74
     1
 75
     0
 76
     0
 77
     0
 78
     0
170
     0
171
     2
172
     0
173
     0
174
     0
175
     0
176
     0
177
     0
178
     0
  0
ENDTAB
  0
ENDSEC
  0
SECTION
  2
BLOCKS
  0
BLOCK
  8
0
  2
$MODEL_SPACE
 70
     0
 10
0.0
 20
0.0
 30
0.0
  3
$MODEL_SPACE
  1

  0
ENDBLK
  5
60E
  8
0
  0
BLOCK
 67
     1
  8
0
  2
$PAPER_SPACE
 70
     0
 10
0.0
 20
0.0
 30
0.0
  3
$PAPER_SPACE
  1

  0
ENDBLK
  5
60A
 67
     1
  8
0
  0
ENDSEC
  0
SECTION
  2
ENTITIES
  0
LINE
  5
2D
  8
HIBINO-BASE
  6
CONTINUOUS
 62
     7
 10
-169.99999999999989
 20
537.06362999999999
 30
0.0
 11
370.0
 21
537.06362999999999
 31
0.0
  0
LINE
  5
2E
  8
HIBINO-BASE
  6
CONTINUOUS
 62
     7
 10
370.0
 20
-242.93637000000001
 30
0.0
 11
-169.99999999999989
 21
-242.93637000000001
 31
0.0
  0
LINE
  5
2F
  8
HIBINO-BASE
  6
CONTINUOUS
 62
     7
 10
-169.99999999999989
 20
-242.93637000000001
 30
0.0
 11
-169.99999999999989
 21
537.06362999999999
 31
0.0
  0
TEXT
  5
30
  8
HIBINO-BASE
 62
     7
 10
-148.44799999999989
 20
-262.1624033999999
 30
0.0
 40
10.800132539062499
  1
Hibino Corporation
 41
0.7
 11
-148.44799999999989
 21
-251.3622708609374
 31
0.0
 73
     3
1001
ACADANNOTATIVE
1000
AnnotativeData
1002
{
1070
     1
1070
     0
1002
}
  0
LINE
  5
31
  8
HIBINO-BASE
  6
CONTINUOUS
 62
     7
 10
370.0
 20
537.06362999999999
 30
0.0
 11
370.0
 21
-242.93637000000001
 31
0.0
  0
LINE
  5
32
  8
HIBINO-BASE
  6
CONTINUOUS
 62
     7
 10
100.0
 20
-175.4363699999999
 30
0.0
 11
370.0
 21
-175.4363699999999
 31
0.0
  0
LINE
  5
33
  8
HIBINO-BASE
  6
CONTINUOUS
 62
     7
 10
100.0
 20
-242.93637000000001
 30
0.0
 11
100.0
 21
-175.4363699999999
 31
0.0
  0
TEXT
  5
34
  8
HIBINO-BASE
 62
     7
 10
102.7
 20
-182.96244999999999
 30
0.0
 40
4.8865234374999993
  1
NOTE
 41
0.7
 11
102.7
 21
-178.0759265625
 31
0.0
 73
     3
1001
ACADANNOTATIVE
1000
AnnotativeData
1002
{
1070
     1
1070
     0
1002
}
  0
LINE
  5
35
  8
HIBINO-BASE
  6
CONTINUOUS
 62
     7
 10
205.0
 20
-242.93637000000001
 30
0.0
 11
205.0
 21
-175.4363699999999
 31
0.0
  0
TEXT
  5
36
  8
HIBINO-BASE
 62
     7
 10
207.69999999999999
 20
-182.96244999999999
 30
0.0
 40
4.8865234374999993
  1
TITLE
 41
0.7
 11
207.69999999999999
 21
-178.0759265625
 31
0.0
 73
     3
1001
ACADANNOTATIVE
1000
AnnotativeData
1002
{
1070
     1
1070
     0
1002
}
  0
TEXT
  5
37
  8
HIBINO-BASE
 62
     7
 10
250.2051699999999
 20
-262.1624033999999
 30
0.0
 40
10.800132539062499
  1
ヒビノ株式会社
 41
0.7
 11
250.2051699999999
 21
-251.3622708609374
 31
0.0
 73
     3
1001
ACADANNOTATIVE
1000
AnnotativeData
1002
{
1070
     1
1070
     0
1002
}
  0
LINE
  5
38
  8
HIBINO-BASE
  6
CONTINUOUS
 62
     7
 10
100.0
 20
-212.9363699999999
 30
0.0
 11
370.0
 21
-212.9363699999999
 31
0.0
  0
TEXT
  5
39
  8
HIBINO-BASE
 62
     7
 10
245.19999999999999
 20
-220.29348999999999
 30
0.0
 40
4.8865234374999993
  1
DRAWN
 41
0.7
 11
245.19999999999999
 21
-215.4069665625
 31
0.0
 73
     3
1001
ACADANNOTATIVE
1000
AnnotativeData
1002
{
1070
     1
1070
     0
1002
}
  0
TEXT
  5
3A
  8
HIBINO-BASE
 62
     7
 10
170.19999999999999
 20
-220.29348999999999
 30
0.0
 40
4.8865234374999993
  1
DATE
 41
0.7
 11
170.19999999999999
 21
-215.4069665625
 31
0.0
 73
     3
1001
ACADANNOTATIVE
1000
AnnotativeData
1002
{
1070
     1
1070
     0
1002
}
  0
TEXT
  5
3B
  8
HIBINO-BASE
 62
     7
 10
140.19999999999999
 20
-220.29348999999999
 30
0.0
 40
4.8865234374999993
  1
SCALE
 41
0.7
 11
140.19999999999999
 21
-215.4069665625
 31
0.0
 73
     3
1001
ACADANNOTATIVE
1000
AnnotativeData
1002
{
1070
     1
1070
     0
1002
}
  0
TEXT
  5
3C
  8
HIBINO-BASE
 62
     7
 10
207.69999999999999
 20
-220.29348999999999
 30
0.0
 40
4.8865234374999993
  1
DESIGN
 41
0.7
 11
207.69999999999999
 21
-215.4069665625
 31
0.0
 73
     3
1001
ACADANNOTATIVE
1000
AnnotativeData
1002
{
1070
     1
1070
     0
1002
}
  0
TEXT
  5
3D
  8
HIBINO-BASE
 62
     7
 10
320.19999999999999
 20
-220.29348999999999
 30
0.0
 40
4.8865234374999993
  1
DRAWING NO.
 41
0.7
 11
320.19999999999999
 21
-215.4069665625
 31
0.0
 73
     3
1001
ACADANNOTATIVE
1000
AnnotativeData
1002
{
1070
     1
1070
     0
1002
}
  0
TEXT
  5
3E
  8
HIBINO-BASE
 62
     7
 10
282.69999999999999
 20
-220.29348999999999
 30
0.0
 40
4.8865234374999993
  1
CHECK
 41
0.7
 11
282.69999999999999
 21
-215.4069665625
 31
0.0
 73
     3
1001
ACADANNOTATIVE
1000
AnnotativeData
1002
{
1070
     1
1070
     0
1002
}
  0
LINE
  5
3F
  8
HIBINO-BASE
  6
CONTINUOUS
 62
     7
 10
143.12499999999989
 20
-239.18637000000001
 30
0.0
 11
154.375
 21
-227.93637000000001
 31
0.0
  0
TEXT
  5
40
  8
HIBINO-BASE
 62
     7
 10
141.24999999999989
 20
-231.26320000000001
 30
0.0
 40
4.8865234374999993
  1
1
 41
0.7
 11
141.24999999999989
 21
-226.37667656249999
 31
0.0
 73
     3
1001
ACADANNOTATIVE
1000
AnnotativeData
1002
{
1070
     1
1070
     0
1002
}
  0
LINE
  5
41
  8
HIBINO-BASE
  6
CONTINUOUS
 62
     7
 10
137.5
 20
-242.93637000000001
 30
0.0
 11
137.5
 21
-212.9363699999999
 31
0.0
  0
LINE
  5
42
  8
HIBINO-BASE
  6
CONTINUOUS
 62
     7
 10
167.5
 20
-242.93637000000001
 30
0.0
 11
167.5
 21
-212.9363699999999
 31
0.0
  0
LINE
  5
43
  8
HIBINO-BASE
  6
CONTINUOUS
 62
     7
 10
242.5
 20
-212.9363699999999
 30
0.0
 11
242.5
 21
-242.93637000000001
 31
0.0
  0
LINE
  5
44
  8
HIBINO-BASE
  6
CONTINUOUS
 62
     7
 10
317.5
 20
-212.9363699999999
 30
0.0
 11
317.5
 21
-242.93637000000001
 31
0.0
  0
LINE
  5
45
  8
HIBINO-BASE
  6
CONTINUOUS
 62
     7
 10
279.99999999999989
 20
-242.93637000000001
 30
0.0
 11
279.99999999999989
 21
-212.9363699999999
 31
0.0
  0
TEXT
  5
46
  8
HIBINO-BASE
 62
     7
 10
170.06961999999999
 20
-234.34542999999999
 30
0.0
 40
4.8865234374999993
  1
'14.07.
 41
0.7
 11
170.06961999999999
 21
-229.4589065625
 31
0.0
 73
     3
1001
ACADANNOTATIVE
1000
AnnotativeData
1002
{
1070
     1
1070
     0
1002
}
  0
TEXT
  5
47
  8
HIBINO-BASE
 62
     7
 10
152.5
 20
-236.88820000000001
 30
0.0
 40
4.8865234374999993
  1
3
 41
0.7
 11
152.5
 21
-232.00167656249999
 31
0.0
 73
     3
1001
ACADANNOTATIVE
1000
AnnotativeData
1002
{
1070
     1
1070
     0
1002
}
  0
TEXT
  5
48
  8
HIBINO-BASE
 62
     7
 10
247.01743003310389
 20
-234.34542999999999
 30
0.0
 40
4.8865234374999993
  1
ootake
 41
0.7
 11
247.01743003310389
 21
-229.4589065625
 31
0.0
 73
     3
1001
ACADANNOTATIVE
1000
AnnotativeData
1002
{
1070
     1
1070
     0
1002
}
  0
TEXT
  5
49
  8
HIBINO-BASE
 62
     7
 10
111.65000000000001
 20
-237.00837000000001
 30
0.0
 40
9.7730468749999986
  1
A4
 41
0.7
 11
111.65000000000001
 21
-227.23532312500001
 31
0.0
 73
     3
1001
ACADANNOTATIVE
1000
AnnotativeData
1002
{
1070
     1
1070
     0
1002
}
  0
TEXT
  5
4A
  8
HIBINO-BASE
 62
     7
 10
102.875
 20
-220.794735
 30
0.0
 40
4.8865234374999993
  1
PAPER SIZE
 41
0.7
 11
102.875
 21
-215.90821156249999
 31
0.0
 73
     3
1001
ACADANNOTATIVE
1000
AnnotativeData
1002
{
1070
     1
1070
     0
1002
}
  0
ARC
  5
4B
  8
PATTERN_FILL
  6
CONTINUOUS
 62
     7
 10
-21.049999999999979
 20
124.07966301552371
 30
0.0
 40
1.25
 50
243.40372962195281
 51
322.3434692548617
  0
ARC
  5
4C
  8
PATTERN_FILL
  6
CONTINUOUS
 62
     7
 10
-17.249999999999979
 20
124.07966301552371
 30
0.0
 40
1.250000000000008
 50
199.4055750315766
 51
2.613662876382874
  0
ARC
  5
4D
  8
PATTERN_FILL
  6
CONTINUOUS
 62
     7
 10
-13.449999999999971
 20
124.07966301552371
 30
0.0
 40
1.250000000000008
 50
166.41074181073861
 51
31.832756135889959
  0
ARC
  5
4E
  8
PATTERN_FILL
  6
CONTINUOUS
 62
     7
 10
-9.6499999999999755
 20
124.07966301552371
 30
0.0
 40
1.2500000000000111
 50
132.03621617007221
 51
62.39117845836914
  0
CIRCLE
  5
4F
  8
PATTERN_FILL
  6
CONTINUOUS
 62
     7
 10
-5.8499999999999801
 20
124.07966301552371
 30
0.0
 40
1.25
  0
CIRCLE
  5
50
  8
PATTERN_FILL
  6
CONTINUOUS
 62
     7
 10
-2.0499999999999821
 20
124.07966301552371
 30
0.0
 40
1.25
  0
CIRCLE
  5
51
  8
PATTERN_FILL
  6
CONTINUOUS
 62
     7
 10
1.750000000000014
 20
124.07966301552371
 30
0.0
 40
1.25
  0
CIRCLE
  5
52
  8
PATTERN_FILL
  6
CONTINUOUS
 62
     7
 10
5.5500000000000114
 20
124.07966301552371
 30
0.0
 40
1.25
  0
CIRCLE
  5
53
  8
PATTERN_FILL
  6
CONTINUOUS
 62
     7
 10
9.3500000000000085
 20
124.07966301552371
 30
0.0
 40
1.25
  0
CIRCLE
  5
54
  8
PATTERN_FILL
  6
CONTINUOUS
 62
     7
 10
13.15
 20
124.07966301552371
 30
0.0
 40
1.25
  0
CIRCLE
  5
55
  8
PATTERN_FILL
  6
CONTINUOUS
 62
     7
 10
16.949999999999999
 20
124.07966301552371
 30
0.0
 40
1.25
  0
ARC
  5
56
  8
PATTERN_FILL
  6
CONTINUOUS
 62
     7
 10
20.750000000000011
 20
124.07966301552371
 30
0.0
 40
1.249999999999996
 50
135.37192059018571
 51
28.087258093133212
  0
ARC
  5
57
  8
PATTERN_FILL
  6
CONTINUOUS
 62
     7
 10
24.550000000000001
 20
124.07966301552371
 30
0.0
 40
1.2499999999999949
 50
163.87154103667859
 51
355.79289104765138
  0
ARC
  5
58
  8
PATTERN_FILL
  6
CONTINUOUS
 62
     7
 10
28.349999999999991
 20
124.07966301552371
 30
0.0
 40
1.2500000000000051
 50
196.67955701368439
 51
319.23465881564698
  0
ARC
  5
59
  8
PATTERN_FILL
  6
CONTINUOUS
 62
     7
 10
-32.449999999999967
 20
120.2796630155237
 30
0.0
 40
1.249999999999994
 50
219.10746940015019
 51
358.66920550348732
  0
ARC
  5
5A
  8
PATTERN_FILL
  6
CONTINUOUS
 62
     7
 10
-28.65000000000002
 20
120.2796630155237
 30
0.0
 40
1.2499999999999809
 50
160.6222855692242
 51
53.506701157156087
  0
CIRCLE
  5
5B
  8
PATTERN_FILL
  6
CONTINUOUS
 62
     7
 10
-24.84999999999998
 20
120.2796630155237
 30
0.0
 40
1.25
  0
CIRCLE
  5
5C
  8
PATTERN_FILL
  6
CONTINUOUS
 62
     7
 10
-21.049999999999979
 20
120.2796630155237
 30
0.0
 40
1.25
  0
CIRCLE
  5
5D
  8
PATTERN_FILL
  6
CONTINUOUS
 62
     7
 10
-17.249999999999979
 20
120.2796630155237
 30
0.0
 40
1.25
  0
CIRCLE
  5
5E
  8
PATTERN_FILL
  6
CONTINUOUS
 62
     7
 10
-13.449999999999971
 20
120.2796630155237
 30
0.0
 40
1.25
  0
CIRCLE
  5
5F
  8
PATTERN_FILL
  6
CONTINUOUS
 62
     7
 10
-9.6499999999999755
 20
120.2796630155237
 30
0.0
 40
1.25
  0
CIRCLE
  5
60
  8
PATTERN_FILL
  6
CONTINUOUS
 62
     7
 10
-5.8499999999999801
 20
120.2796630155237
 30
0.0
 40
1.25
  0
CIRCLE
  5
61
  8
PATTERN_FILL
  6
CONTINUOUS
 62
     7
 10
-2.0499999999999821
 20
120.2796630155237
 30
0.0
 40
1.25
  0
CIRCLE
  5
62
  8
PATTERN_FILL
  6
CONTINUOUS
 62
     7
 10
1.750000000000014
 20
120.2796630155237
 30
0.0
 40
1.25
  0
CIRCLE
  5
63
  8
PATTERN_FILL
  6
CONTINUOUS
 62
     7
 10
5.5500000000000114
 20
120.2796630155237
 30
0.0
 40
1.25
  0
CIRCLE
  5
64
  8
PATTERN_FILL
  6
CONTINUOUS
 62
     7
 10
9.3500000000000085
 20
120.2796630155237
 30
0.0
 40
1.25
  0
CIRCLE
  5
65
  8
PATTERN_FILL
  6
CONTINUOUS
 62
     7
 10
13.15
 20
120.2796630155237
 30
0.0
 40
1.25
  0
CIRCLE
  5
66
  8
PATTERN_FILL
  6
CONTINUOUS
 62
     7
 10
16.949999999999999
 20
120.2796630155237
 30
0.0
 40
1.25
  0
CIRCLE
  5
67
  8
PATTERN_FILL
  6
CONTINUOUS
 62
     7
 10
20.75
 20
120.2796630155237
 30
0.0
 40
1.25
  0
CIRCLE
  5
68
  8
PATTERN_FILL
  6
CONTINUOUS
 62
     7
 10
24.550000000000001
 20
120.2796630155237
 30
0.0
 40
1.25
  0
CIRCLE
  5
69
  8
PATTERN_FILL
  6
CONTINUOUS
 62
     7
 10
28.349999999999991
 20
120.2796630155237
 30
0.0
 40
1.25
  0
CIRCLE
  5
6A
  8
PATTERN_FILL
  6
CONTINUOUS
 62
     7
 10
32.149999999999991
 20
120.2796630155237
 30
0.0
 40
1.25
  0
CIRCLE
  5
6B
  8
PATTERN_FILL
  6
CONTINUOUS
 62
     7
 10
35.949999999999989
 20
120.2796630155237
 30
0.0
 40
1.25
  0
ARC
  5
6C
  8
PATTERN_FILL
  6
CONTINUOUS
 62
     7
 10
39.75
 20
120.2796630155237
 30
0.0
 40
1.250000000000002
 50
157.0510834276146
 51
346.79477533052909
  0
ARC
  5
6D
  8
PATTERN_FILL
  6
CONTINUOUS
 62
     7
 10
43.549999999999983
 20
120.2796630155237
 30
0.0
 40
1.25
 50
224.20371524776431
 51
276.03684260851048
  0
ARC
  5
6E
  8
PATTERN_FILL
  6
CONTINUOUS
 62
     7
 10
-40.049999999999969
 20
116.4796630155237
 30
0.0
 40
1.2500000000000031
 50
285.27333321199001
 51
356.43640197121772
  0
CIRCLE
  5
6F
  8
PATTERN_FILL
  6
CONTINUOUS
 62
     7
 10
-36.25
 20
116.4796630155237
 30
0.0
 40
1.25
  0
CIRCLE
  5
70
  8
PATTERN_FILL
  6
CONTINUOUS
 62
     7
 10
-32.449999999999967
 20
116.4796630155237
 30
0.0
 40
1.25
  0
CIRCLE
  5
71
  8
PATTERN_FILL
  6
CONTINUOUS
 62
     7
 10
-28.649999999999991
 20
116.4796630155237
 30
0.0
 40
1.250000000000014
  0
CIRCLE
  5
72
  8
PATTERN_FILL
  6
CONTINUOUS
 62
     7
 10
-24.84999999999998
 20
116.4796630155237
 30
0.0
 40
1.25
  0
CIRCLE
  5
73
  8
PATTERN_FILL
  6
CONTINUOUS
 62
     7
 10
-21.049999999999979
 20
116.4796630155237
 30
0.0
 40
1.25
  0
CIRCLE
  5
74
  8
PATTERN_FILL
  6
CONTINUOUS
 62
     7
 10
-17.249999999999979
 20
116.4796630155237
 30
0.0
 40
1.25
  0
CIRCLE
  5
75
  8
PATTERN_FILL
  6
CONTINUOUS
 62
     7
 10
-13.449999999999971
 20
116.4796630155237
 30
0.0
 40
1.25
  0
CIRCLE
  5
76
  8
PATTERN_FILL
  6
CONTINUOUS
 62
     7
 10
-9.6499999999999755
 20
116.4796630155237
 30
0.0
 40
1.25
  0
CIRCLE
  5
77
  8
PATTERN_FILL
  6
CONTINUOUS
 62
     7
 10
-5.8499999999999801
 20
116.4796630155237
 30
0.0
 40
1.25
  0
CIRCLE
  5
78
  8
PATTERN_FILL
  6
CONTINUOUS
 62
     7
 10
-2.0499999999999821
 20
116.4796630155237
 30
0.0
 40
1.25
  0
CIRCLE
  5
79
  8
PATTERN_FILL
  6
CONTINUOUS
 62
     7
 10
1.750000000000014
 20
116.4796630155237
 30
0.0
 40
1.25
  0
CIRCLE
  5
7A
  8
PATTERN_FILL
  6
CONTINUOUS
 62
     7
 10
5.5500000000000114
 20
116.4796630155237
 30
0.0
 40
1.25
  0
CIRCLE
  5
7B
  8
PATTERN_FILL
  6
CONTINUOUS
 62
     7
 10
9.3500000000000085
 20
116.4796630155237
 30
0.0
 40
1.25
  0
CIRCLE
  5
7C
  8
PATTERN_FILL
  6
CONTINUOUS
 62
     7
 10
13.15
 20
116.4796630155237
 30
0.0
 40
1.25
  0
CIRCLE
  5
7D
  8
PATTERN_FILL
  6
CONTINUOUS
 62
     7
 10
16.949999999999999
 20
116.4796630155237
 30
0.0
 40
1.25
  0
CIRCLE
  5
7E
  8
PATTERN_FILL
  6
CONTINUOUS
 62
     7
 10
20.75
 20
116.4796630155237
 30
0.0
 40
1.25
  0
CIRCLE
  5
7F
  8
PATTERN_FILL
  6
CONTINUOUS
 62
     7
 10
24.550000000000001
 20
116.4796630155237
 30
0.0
 40
1.25
  0
CIRCLE
  5
80
  8
PATTERN_FILL
  6
CONTINUOUS
 62
     7
 10
28.349999999999991
 20
116.4796630155237
 30
0.0
 40
1.25
  0
CIRCLE
  5
81
  8
PATTERN_FILL
  6
CONTINUOUS
 62
     7
 10
32.149999999999991
 20
116.4796630155237
 30
0.0
 40
1.25
  0
CIRCLE
  5
82
  8
PATTERN_FILL
  6
CONTINUOUS
 62
     7
 10
35.949999999999989
 20
116.4796630155237
 30
0.0
 40
1.25
  0
CIRCLE
  5
83
  8
PATTERN_FILL
  6
CONTINUOUS
 62
     7
 10
39.75
 20
116.4796630155237
 30
0.0
 40
1.25
  0
CIRCLE
  5
84
  8
PATTERN_FILL
  6
CONTINUOUS
 62
     7
 10
43.549999999999983
 20
116.4796630155237
 30
0.0
 40
1.25
  0
ARC
  5
85
  8
PATTERN_FILL
  6
CONTINUOUS
 62
     7
 10
47.34999999999998
 20
116.4796630155237
 30
0.0
 40
1.2500000000000011
 50
126.6235429669666
 51
324.33019783818509
  0
ARC
  5
86
  8
PATTERN_FILL
  6
CONTINUOUS
 62
     7
 10
-40.049999999999969
 20
112.6796630155237
 30
0.0
 40
1.249999999999996
 50
205.1909993319708
 51
114.3861816390823
  0
CIRCLE
  5
87
  8
PATTERN_FILL
  6
CONTINUOUS
 62
     7
 10
-36.25
 20
112.6796630155237
 30
0.0
 40
1.25
  0
CIRCLE
  5
88
  8
PATTERN_FILL
  6
CONTINUOUS
 62
     7
 10
-32.449999999999967
 20
112.6796630155237
 30
0.0
 40
1.25
  0
CIRCLE
  5
89
  8
PATTERN_FILL
  6
CONTINUOUS
 62
     7
 10
-28.649999999999991
 20
112.6796630155237
 30
0.0
 40
1.250000000000014
  0
CIRCLE
  5
8A
  8
PATTERN_FILL
  6
CONTINUOUS
 62
     7
 10
-24.84999999999998
 20
112.6796630155237
 30
0.0
 40
1.25
  0
CIRCLE
  5
8B
  8
PATTERN_FILL
  6
CONTINUOUS
 62
     7
 10
-21.049999999999979
 20
112.6796630155237
 30
0.0
 40
1.25
  0
CIRCLE
  5
8C
  8
PATTERN_FILL
  6
CONTINUOUS
 62
     7
 10
-17.249999999999979
 20
112.6796630155237
 30
0.0
 40
1.25
  0
CIRCLE
  5
8D
  8
PATTERN_FILL
  6
CONTINUOUS
 62
     7
 10
-13.449999999999971
 20
112.6796630155237
 30
0.0
 40
1.25
  0
CIRCLE
  5
8E
  8
PATTERN_FILL
  6
CONTINUOUS
 62
     7
 10
-9.6499999999999755
 20
112.6796630155237
 30
0.0
 40
1.25
  0
CIRCLE
  5
8F
  8
PATTERN_FILL
  6
CONTINUOUS
 62
     7
 10
-5.8499999999999801
 20
112.6796630155237
 30
0.0
 40
1.25
  0
CIRCLE
  5
90
  8
PATTERN_FILL
  6
CONTINUOUS
 62
     7
 10
-2.0499999999999821
 20
112.6796630155237
 30
0.0
 40
1.25
  0
CIRCLE
  5
91
  8
PATTERN_FILL
  6
CONTINUOUS
 62
     7
 10
1.750000000000014
 20
112.6796630155237
 30
0.0
 40
1.25
  0
CIRCLE
  5
92
  8
PATTERN_FILL
  6
CONTINUOUS
 62
     7
 10
5.5500000000000114
 20
112.6796630155237
 30
0.0
 40
1.25
  0
CIRCLE
  5
93
  8
PATTERN_FILL
  6
CONTINUOUS
 62
     7
 10
9.3500000000000085
 20
112.6796630155237
 30
0.0
 40
1.25
  0
CIRCLE
  5
94
  8
PATTERN_FILL
  6
CONTINUOUS
 62
     7
 10
13.15
 20
112.6796630155237
 30
0.0
 40
1.25
  0
CIRCLE
  5
95
  8
PATTERN_FILL
  6
CONTINUOUS
 62
     7
 10
16.949999999999999
 20
112.6796630155237
 30
0.0
 40
1.25
  0
CIRCLE
  5
96
  8
PATTERN_FILL
  6
CONTINUOUS
 62
     7
 10
20.75
 20
112.6796630155237
 30
0.0
 40
1.25
  0
CIRCLE
  5
97
  8
PATTERN_FILL
  6
CONTINUOUS
 62
     7
 10
24.550000000000001
 20
112.6796630155237
 30
0.0
 40
1.25
  0
CIRCLE
  5
98
  8
PATTERN_FILL
  6
CONTINUOUS
 62
     7
 10
28.349999999999991
 20
112.6796630155237
 30
0.0
 40
1.25
  0
CIRCLE
  5
99
  8
PATTERN_FILL
  6
CONTINUOUS
 62
     7
 10
32.149999999999991
 20
112.6796630155237
 30
0.0
 40
1.25
  0
CIRCLE
  5
9A
  8
PATTERN_FILL
  6
CONTINUOUS
 62
     7
 10
35.949999999999989
 20
112.6796630155237
 30
0.0
 40
1.25
  0
CIRCLE
  5
9B
  8
PATTERN_FILL
  6
CONTINUOUS
 62
     7
 10
39.75
 20
112.6796630155237
 30
0.0
 40
1.25
  0
CIRCLE
  5
9C
  8
PATTERN_FILL
  6
CONTINUOUS
 62
     7
 10
43.549999999999983
 20
112.6796630155237
 30
0.0
 40
1.25
  0
CIRCLE
  5
9D
  8
PATTERN_FILL
  6
CONTINUOUS
 62
     7
 10
47.34999999999998
 20
112.6796630155237
 30
0.0
 40
1.25
  0
ARC
  5
9E
  8
PATTERN_FILL
  6
CONTINUOUS
 62
     7
 10
51.149999999999977
 20
112.6796630155237
 30
0.0
 40
1.2500000000000011
 50
167.6472022084925
 51
225.26483968251631
  0
CIRCLE
  5
9F
  8
PATTERN_FILL
  6
CONTINUOUS
 62
     7
 10
-40.049999999999969
 20
108.8796630155237
 30
0.0
 40
1.25
  0
CIRCLE
  5
A0
  8
PATTERN_FILL
  6
CONTINUOUS
 62
     7
 10
-36.25
 20
108.8796630155237
 30
0.0
 40
1.25
  0
CIRCLE
  5
A1
  8
PATTERN_FILL
  6
CONTINUOUS
 62
     7
 10
-32.449999999999967
 20
108.8796630155237
 30
0.0
 40
1.25
  0
CIRCLE
  5
A2
  8
PATTERN_FILL
  6
CONTINUOUS
 62
     7
 10
-28.649999999999991
 20
108.8796630155237
 30
0.0
 40
1.250000000000014
  0
CIRCLE
  5
A3
  8
PATTERN_FILL
  6
CONTINUOUS
 62
     7
 10
-24.84999999999998
 20
108.8796630155237
 30
0.0
 40
1.25
  0
CIRCLE
  5
A4
  8
PATTERN_FILL
  6
CONTINUOUS
 62
     7
 10
-21.049999999999979
 20
108.8796630155237
 30
0.0
 40
1.25
  0
CIRCLE
  5
A5
  8
PATTERN_FILL
  6
CONTINUOUS
 62
     7
 10
-17.249999999999979
 20
108.8796630155237
 30
0.0
 40
1.25
  0
CIRCLE
  5
A6
  8
PATTERN_FILL
  6
CONTINUOUS
 62
     7
 10
-13.449999999999971
 20
108.8796630155237
 30
0.0
 40
1.25
  0
CIRCLE
  5
A7
  8
PATTERN_FILL
  6
CONTINUOUS
 62
     7
 10
-9.6499999999999755
 20
108.8796630155237
 30
0.0
 40
1.25
  0
CIRCLE
  5
A8
  8
PATTERN_FILL
  6
CONTINUOUS
 62
     7
 10
-5.8499999999999801
 20
108.8796630155237
 30
0.0
 40
1.25
  0
CIRCLE
  5
A9
  8
PATTERN_FILL
  6
CONTINUOUS
 62
     7
 10
-2.0499999999999821
 20
108.8796630155237
 30
0.0
 40
1.25
  0
CIRCLE
  5
AA
  8
PATTERN_FILL
  6
CONTINUOUS
 62
     7
 10
1.750000000000014
 20
108.8796630155237
 30
0.0
 40
1.25
  0
CIRCLE
  5
AB
  8
PATTERN_FILL
  6
CONTINUOUS
 62
     7
 10
5.5500000000000114
 20
108.8796630155237
 30
0.0
 40
1.25
  0
CIRCLE
  5
AC
  8
PATTERN_FILL
  6
CONTINUOUS
 62
     7
 10
9.3500000000000085
 20
108.8796630155237
 30
0.0
 40
1.25
  0
CIRCLE
  5
AD
  8
PATTERN_FILL
  6
CONTINUOUS
 62
     7
 10
13.15
 20
108.8796630155237
 30
0.0
 40
1.25
  0
CIRCLE
  5
AE
  8
PATTERN_FILL
  6
CONTINUOUS
 62
     7
 10
16.949999999999999
 20
108.8796630155237
 30
0.0
 40
1.25
  0
CIRCLE
  5
AF
  8
PATTERN_FILL
  6
CONTINUOUS
 62
     7
 10
20.75
 20
108.8796630155237
 30
0.0
 40
1.25
  0
CIRCLE
  5
B0
  8
PATTERN_FILL
  6
CONTINUOUS
 62
     7
 10
24.550000000000001
 20
108.8796630155237
 30
0.0
 40
1.25
  0
CIRCLE
  5
B1
  8
PATTERN_FILL
  6
CONTINUOUS
 62
     7
 10
28.349999999999991
 20
108.8796630155237
 30
0.0
 40
1.25
  0
CIRCLE
  5
B2
  8
PATTERN_FILL
  6
CONTINUOUS
 62
     7
 10
32.149999999999991
 20
108.8796630155237
 30
0.0
 40
1.25
  0
CIRCLE
  5
B3
  8
PATTERN_FILL
  6
CONTINUOUS
 62
     7
 10
35.949999999999989
 20
108.8796630155237
 30
0.0
 40
1.25
  0
CIRCLE
  5
B4
  8
PATTERN_FILL
  6
CONTINUOUS
 62
     7
 10
39.75
 20
108.8796630155237
 30
0.0
 40
1.25
  0
CIRCLE
  5
B5
  8
PATTERN_FILL
  6
CONTINUOUS
 62
     7
 10
43.549999999999983
 20
108.8796630155237
 30
0.0
 40
1.25
  0
CIRCLE
  5
B6
  8
PATTERN_FILL
  6
CONTINUOUS
 62
     7
 10
47.34999999999998
 20
108.8796630155237
 30
0.0
 40
1.25
  0
ARC
  5
B7
  8
PATTERN_FILL
  6
CONTINUOUS
 62
     7
 10
51.149999999999977
 20
108.8796630155237
 30
0.0
 40
1.25
 50
120.3741563599735
 51
234.1710916376469
  0
ARC
  5
B8
  8
PATTERN_FILL
  6
CONTINUOUS
 62
     7
 10
-40.049999999999969
 20
105.07966301552359
 30
0.0
 40
1.249999999999996
 50
211.30981437700021
 51
158.68050660154751
  0
CIRCLE
  5
B9
  8
PATTERN_FILL
  6
CONTINUOUS
 62
     7
 10
-36.25
 20
105.07966301552359
 30
0.0
 40
1.25
  0
CIRCLE
  5
BA
  8
PATTERN_FILL
  6
CONTINUOUS
 62
     7
 10
-32.449999999999967
 20
105.07966301552359
 30
0.0
 40
1.25
  0
CIRCLE
  5
BB
  8
PATTERN_FILL
  6
CONTINUOUS
 62
     7
 10
-28.649999999999991
 20
105.07966301552359
 30
0.0
 40
1.250000000000014
  0
CIRCLE
  5
BC
  8
PATTERN_FILL
  6
CONTINUOUS
 62
     7
 10
-24.84999999999998
 20
105.07966301552359
 30
0.0
 40
1.25
  0
CIRCLE
  5
BD
  8
PATTERN_FILL
  6
CONTINUOUS
 62
     7
 10
-21.049999999999979
 20
105.07966301552359
 30
0.0
 40
1.25
  0
CIRCLE
  5
BE
  8
PATTERN_FILL
  6
CONTINUOUS
 62
     7
 10
-17.249999999999979
 20
105.07966301552359
 30
0.0
 40
1.25
  0
CIRCLE
  5
BF
  8
PATTERN_FILL
  6
CONTINUOUS
 62
     7
 10
-13.449999999999971
 20
105.07966301552359
 30
0.0
 40
1.25
  0
CIRCLE
  5
C0
  8
PATTERN_FILL
  6
CONTINUOUS
 62
     7
 10
-9.6499999999999755
 20
105.07966301552359
 30
0.0
 40
1.25
  0
CIRCLE
  5
C1
  8
PATTERN_FILL
  6
CONTINUOUS
 62
     7
 10
-5.8499999999999801
 20
105.07966301552359
 30
0.0
 40
1.25
  0
CIRCLE
  5
C2
  8
PATTERN_FILL
  6
CONTINUOUS
 62
     7
 10
-2.0499999999999821
 20
105.07966301552359
 30
0.0
 40
1.25
  0
CIRCLE
  5
C3
  8
PATTERN_FILL
  6
CONTINUOUS
 62
     7
 10
1.750000000000014
 20
105.07966301552359
 30
0.0
 40
1.25
  0
CIRCLE
  5
C4
  8
PATTERN_FILL
  6
CONTINUOUS
 62
     7
 10
5.5500000000000114
 20
105.07966301552359
 30
0.0
 40
1.25
  0
CIRCLE
  5
C5
  8
PATTERN_FILL
  6
CONTINUOUS
 62
     7
 10
9.3500000000000085
 20
105.07966301552359
 30
0.0
 40
1.25
  0
CIRCLE
  5
C6
  8
PATTERN_FILL
  6
CONTINUOUS
 62
     7
 10
13.15
 20
105.07966301552359
 30
0.0
 40
1.25
  0
CIRCLE
  5
C7
  8
PATTERN_FILL
  6
CONTINUOUS
 62
     7
 10
16.949999999999999
 20
105.07966301552359
 30
0.0
 40
1.25
  0
CIRCLE
  5
C8
  8
PATTERN_FILL
  6
CONTINUOUS
 62
     7
 10
20.75
 20
105.07966301552359
 30
0.0
 40
1.25
  0
CIRCLE
  5
C9
  8
PATTERN_FILL
  6
CONTINUOUS
 62
     7
 10
24.550000000000001
 20
105.07966301552359
 30
0.0
 40
1.25
  0
CIRCLE
  5
CA
  8
PATTERN_FILL
  6
CONTINUOUS
 62
     7
 10
28.349999999999991
 20
105.07966301552359
 30
0.0
 40
1.25
  0
CIRCLE
  5
CB
  8
PATTERN_FILL
  6
CONTINUOUS
 62
     7
 10
32.149999999999991
 20
105.07966301552359
 30
0.0
 40
1.25
  0
CIRCLE
  5
CC
  8
PATTERN_FILL
  6
CONTINUOUS
 62
     7
 10
35.949999999999989
 20
105.07966301552359
 30
0.0
 40
1.25
  0
CIRCLE
  5
CD
  8
PATTERN_FILL
  6
CONTINUOUS
 62
     7
 10
39.75
 20
105.07966301552359
 30
0.0
 40
1.25
  0
CIRCLE
  5
CE
  8
PATTERN_FILL
  6
CONTINUOUS
 62
     7
 10
43.549999999999983
 20
105.07966301552359
 30
0.0
 40
1.25
  0
CIRCLE
  5
CF
  8
PATTERN_FILL
  6
CONTINUOUS
 62
     7
 10
47.34999999999998
 20
105.07966301552359
 30
0.0
 40
1.25
  0
ARC
  5
D0
  8
PATTERN_FILL
  6
CONTINUOUS
 62
     7
 10
51.149999999999977
 20
105.07966301552359
 30
0.0
 40
1.25
 50
136.01398223177549
 51
213.99569678968501
  0
ARC
  5
D1
  8
PATTERN_FILL
  6
CONTINUOUS
 62
     7
 10
-40.04999999999994
 20
101.2796630155237
 30
0.0
 40
1.250000000000016
 50
235.82131986839971
 51
134.16900111014169
  0
CIRCLE
  5
D2
  8
PATTERN_FILL
  6
CONTINUOUS
 62
     7
 10
-36.25
 20
101.2796630155237
 30
0.0
 40
1.25
  0
CIRCLE
  5
D3
  8
PATTERN_FILL
  6
CONTINUOUS
 62
     7
 10
-32.449999999999967
 20
101.2796630155237
 30
0.0
 40
1.25
  0
CIRCLE
  5
D4
  8
PATTERN_FILL
  6
CONTINUOUS
 62
     7
 10
-28.649999999999991
 20
101.2796630155237
 30
0.0
 40
1.250000000000014
  0
CIRCLE
  5
D5
  8
PATTERN_FILL
  6
CONTINUOUS
 62
     7
 10
-24.84999999999998
 20
101.2796630155237
 30
0.0
 40
1.25
  0
CIRCLE
  5
D6
  8
PATTERN_FILL
  6
CONTINUOUS
 62
     7
 10
-21.049999999999979
 20
101.2796630155237
 30
0.0
 40
1.25
  0
CIRCLE
  5
D7
  8
PATTERN_FILL
  6
CONTINUOUS
 62
     7
 10
-17.249999999999979
 20
101.2796630155237
 30
0.0
 40
1.25
  0
CIRCLE
  5
D8
  8
PATTERN_FILL
  6
CONTINUOUS
 62
     7
 10
-13.449999999999971
 20
101.2796630155237
 30
0.0
 40
1.25
  0
CIRCLE
  5
D9
  8
PATTERN_FILL
  6
CONTINUOUS
 62
     7
 10
-9.6499999999999755
 20
101.2796630155237
 30
0.0
 40
1.25
  0
CIRCLE
  5
DA
  8
PATTERN_FILL
  6
CONTINUOUS
 62
     7
 10
-5.8499999999999801
 20
101.2796630155237
 30
0.0
 40
1.25
  0
CIRCLE
  5
DB
  8
PATTERN_FILL
  6
CONTINUOUS
 62
     7
 10
-2.0499999999999821
 20
101.2796630155237
 30
0.0
 40
1.25
  0
CIRCLE
  5
DC
  8
PATTERN_FILL
  6
CONTINUOUS
 62
     7
 10
1.750000000000014
 20
101.2796630155237
 30
0.0
 40
1.25
  0
CIRCLE
  5
DD
  8
PATTERN_FILL
  6
CONTINUOUS
 62
     7
 10
5.5500000000000114
 20
101.2796630155237
 30
0.0
 40
1.25
  0
CIRCLE
  5
DE
  8
PATTERN_FILL
  6
CONTINUOUS
 62
     7
 10
9.3500000000000085
 20
101.2796630155237
 30
0.0
 40
1.25
  0
CIRCLE
  5
DF
  8
PATTERN_FILL
  6
CONTINUOUS
 62
     7
 10
13.15
 20
101.2796630155237
 30
0.0
 40
1.25
  0
CIRCLE
  5
E0
  8
PATTERN_FILL
  6
CONTINUOUS
 62
     7
 10
16.949999999999999
 20
101.2796630155237
 30
0.0
 40
1.25
  0
CIRCLE
  5
E1
  8
PATTERN_FILL
  6
CONTINUOUS
 62
     7
 10
20.75
 20
101.2796630155237
 30
0.0
 40
1.25
  0
CIRCLE
  5
E2
  8
PATTERN_FILL
  6
CONTINUOUS
 62
     7
 10
24.550000000000001
 20
101.2796630155237
 30
0.0
 40
1.25
  0
CIRCLE
  5
E3
  8
PATTERN_FILL
  6
CONTINUOUS
 62
     7
 10
28.349999999999991
 20
101.2796630155237
 30
0.0
 40
1.25
  0
CIRCLE
  5
E4
  8
PATTERN_FILL
  6
CONTINUOUS
 62
     7
 10
32.149999999999991
 20
101.2796630155237
 30
0.0
 40
1.25
  0
CIRCLE
  5
E5
  8
PATTERN_FILL
  6
CONTINUOUS
 62
     7
 10
35.949999999999989
 20
101.2796630155237
 30
0.0
 40
1.25
  0
CIRCLE
  5
E6
  8
PATTERN_FILL
  6
CONTINUOUS
 62
     7
 10
39.75
 20
101.2796630155237
 30
0.0
 40
1.25
  0
CIRCLE
  5
E7
  8
PATTERN_FILL
  6
CONTINUOUS
 62
     7
 10
43.549999999999983
 20
101.2796630155237
 30
0.0
 40
1.25
  0
CIRCLE
  5
E8
  8
PATTERN_FILL
  6
CONTINUOUS
 62
     7
 10
47.34999999999998
 20
101.2796630155237
 30
0.0
 40
1.25
  0
ARC
  5
E9
  8
PATTERN_FILL
  6
CONTINUOUS
 62
     7
 10
-40.049999999999969
 20
97.479663015523684
 30
0.0
 40
1.249999999999988
 50
253.4658120709997
 51
116.52450890754081
  0
CIRCLE
  5
EA
  8
PATTERN_FILL
  6
CONTINUOUS
 62
     7
 10
-36.25
 20
97.479663015523684
 30
0.0
 40
1.25
  0
CIRCLE
  5
EB
  8
PATTERN_FILL
  6
CONTINUOUS
 62
     7
 10
-32.449999999999967
 20
97.479663015523684
 30
0.0
 40
1.25
  0
CIRCLE
  5
EC
  8
PATTERN_FILL
  6
CONTINUOUS
 62
     7
 10
-28.649999999999991
 20
97.479663015523684
 30
0.0
 40
1.250000000000014
  0
CIRCLE
  5
ED
  8
PATTERN_FILL
  6
CONTINUOUS
 62
     7
 10
-24.84999999999998
 20
97.479663015523684
 30
0.0
 40
1.25
  0
CIRCLE
  5
EE
  8
PATTERN_FILL
  6
CONTINUOUS
 62
     7
 10
-21.049999999999979
 20
97.479663015523684
 30
0.0
 40
1.25
  0
CIRCLE
  5
EF
  8
PATTERN_FILL
  6
CONTINUOUS
 62
     7
 10
-17.249999999999979
 20
97.479663015523684
 30
0.0
 40
1.25
  0
CIRCLE
  5
F0
  8
PATTERN_FILL
  6
CONTINUOUS
 62
     7
 10
-13.449999999999971
 20
97.479663015523684
 30
0.0
 40
1.25
  0
CIRCLE
  5
F1
  8
PATTERN_FILL
  6
CONTINUOUS
 62
     7
 10
-9.6499999999999755
 20
97.479663015523684
 30
0.0
 40
1.25
  0
CIRCLE
  5
F2
  8
PATTERN_FILL
  6
CONTINUOUS
 62
     7
 10
-5.8499999999999801
 20
97.479663015523684
 30
0.0
 40
1.25
  0
CIRCLE
  5
F3
  8
PATTERN_FILL
  6
CONTINUOUS
 62
     7
 10
-2.0499999999999821
 20
97.479663015523684
 30
0.0
 40
1.25
  0
CIRCLE
  5
F4
  8
PATTERN_FILL
  6
CONTINUOUS
 62
     7
 10
1.750000000000014
 20
97.479663015523684
 30
0.0
 40
1.25
  0
CIRCLE
  5
F5
  8
PATTERN_FILL
  6
CONTINUOUS
 62
     7
 10
5.5500000000000114
 20
97.479663015523684
 30
0.0
 40
1.25
  0
CIRCLE
  5
F6
  8
PATTERN_FILL
  6
CONTINUOUS
 62
     7
 10
9.3500000000000085
 20
97.479663015523684
 30
0.0
 40
1.25
  0
CIRCLE
  5
F7
  8
PATTERN_FILL
  6
CONTINUOUS
 62
     7
 10
13.15
 20
97.479663015523684
 30
0.0
 40
1.25
  0
CIRCLE
  5
F8
  8
PATTERN_FILL
  6
CONTINUOUS
 62
     7
 10
16.949999999999999
 20
97.479663015523684
 30
0.0
 40
1.25
  0
CIRCLE
  5
F9
  8
PATTERN_FILL
  6
CONTINUOUS
 62
     7
 10
20.75
 20
97.479663015523684
 30
0.0
 40
1.25
  0
CIRCLE
  5
FA
  8
PATTERN_FILL
  6
CONTINUOUS
 62
     7
 10
24.550000000000001
 20
97.479663015523684
 30
0.0
 40
1.25
  0
CIRCLE
  5
FB
  8
PATTERN_FILL
  6
CONTINUOUS
 62
     7
 10
28.349999999999991
 20
97.479663015523684
 30
0.0
 40
1.25
  0
CIRCLE
  5
FC
  8
PATTERN_FILL
  6
CONTINUOUS
 62
     7
 10
32.149999999999991
 20
97.479663015523684
 30
0.0
 40
1.25
  0
CIRCLE
  5
FD
  8
PATTERN_FILL
  6
CONTINUOUS
 62
     7
 10
35.949999999999989
 20
97.479663015523684
 30
0.0
 40
1.25
  0
CIRCLE
  5
FE
  8
PATTERN_FILL
  6
CONTINUOUS
 62
     7
 10
39.75
 20
97.479663015523684
 30
0.0
 40
1.25
  0
CIRCLE
  5
FF
  8
PATTERN_FILL
  6
CONTINUOUS
 62
     7
 10
43.549999999999983
 20
97.479663015523684
 30
0.0
 40
1.25
  0
CIRCLE
  5
100
  8
PATTERN_FILL
  6
CONTINUOUS
 62
     7
 10
47.34999999999998
 20
97.479663015523684
 30
0.0
 40
1.25
  0
ARC
  5
101
  8
PATTERN_FILL
  6
CONTINUOUS
 62
     7
 10
-40.049999999999969
 20
93.679663015523687
 30
0.0
 40
1.250000000000004
 50
269.12467630286199
 51
100.86564467567879
  0
CIRCLE
  5
102
  8
PATTERN_FILL
  6
CONTINUOUS
 62
     7
 10
-36.25
 20
93.679663015523687
 30
0.0
 40
1.25
  0
CIRCLE
  5
103
  8
PATTERN_FILL
  6
CONTINUOUS
 62
     7
 10
-32.449999999999967
 20
93.679663015523687
 30
0.0
 40
1.25
  0
CIRCLE
  5
104
  8
PATTERN_FILL
  6
CONTINUOUS
 62
     7
 10
-28.649999999999991
 20
93.679663015523687
 30
0.0
 40
1.250000000000014
  0
CIRCLE
  5
105
  8
PATTERN_FILL
  6
CONTINUOUS
 62
     7
 10
-24.84999999999998
 20
93.679663015523687
 30
0.0
 40
1.25
  0
CIRCLE
  5
106
  8
PATTERN_FILL
  6
CONTINUOUS
 62
     7
 10
-21.049999999999979
 20
93.679663015523687
 30
0.0
 40
1.25
  0
CIRCLE
  5
107
  8
PATTERN_FILL
  6
CONTINUOUS
 62
     7
 10
-17.249999999999979
 20
93.679663015523687
 30
0.0
 40
1.25
  0
CIRCLE
  5
108
  8
PATTERN_FILL
  6
CONTINUOUS
 62
     7
 10
-13.449999999999971
 20
93.679663015523687
 30
0.0
 40
1.25
  0
CIRCLE
  5
109
  8
PATTERN_FILL
  6
CONTINUOUS
 62
     7
 10
-9.6499999999999755
 20
93.679663015523687
 30
0.0
 40
1.25
  0
CIRCLE
  5
10A
  8
PATTERN_FILL
  6
CONTINUOUS
 62
     7
 10
-5.8499999999999801
 20
93.679663015523687
 30
0.0
 40
1.25
  0
CIRCLE
  5
10B
  8
PATTERN_FILL
  6
CONTINUOUS
 62
     7
 10
-2.0499999999999821
 20
93.679663015523687
 30
0.0
 40
1.25
  0
CIRCLE
  5
10C
  8
PATTERN_FILL
  6
CONTINUOUS
 62
     7
 10
1.750000000000014
 20
93.679663015523687
 30
0.0
 40
1.25
  0
CIRCLE
  5
10D
  8
PATTERN_FILL
  6
CONTINUOUS
 62
     7
 10
5.5500000000000114
 20
93.679663015523687
 30
0.0
 40
1.25
  0
CIRCLE
  5
10E
  8
PATTERN_FILL
  6
CONTINUOUS
 62
     7
 10
9.3500000000000085
 20
93.679663015523687
 30
0.0
 40
1.25
  0
CIRCLE
  5
10F
  8
PATTERN_FILL
  6
CONTINUOUS
 62
     7
 10
13.15
 20
93.679663015523687
 30
0.0
 40
1.25
  0
CIRCLE
  5
110
  8
PATTERN_FILL
  6
CONTINUOUS
 62
     7
 10
16.949999999999999
 20
93.679663015523687
 30
0.0
 40
1.25
  0
CIRCLE
  5
111
  8
PATTERN_FILL
  6
CONTINUOUS
 62
     7
 10
20.75
 20
93.679663015523687
 30
0.0
 40
1.25
  0
CIRCLE
  5
112
  8
PATTERN_FILL
  6
CONTINUOUS
 62
     7
 10
24.550000000000001
 20
93.679663015523687
 30
0.0
 40
1.25
  0
CIRCLE
  5
113
  8
PATTERN_FILL
  6
CONTINUOUS
 62
     7
 10
28.349999999999991
 20
93.679663015523687
 30
0.0
 40
1.25
  0
CIRCLE
  5
114
  8
PATTERN_FILL
  6
CONTINUOUS
 62
     7
 10
32.149999999999991
 20
93.679663015523687
 30
0.0
 40
1.25
  0
CIRCLE
  5
115
  8
PATTERN_FILL
  6
CONTINUOUS
 62
     7
 10
35.949999999999989
 20
93.679663015523687
 30
0.0
 40
1.25
  0
CIRCLE
  5
116
  8
PATTERN_FILL
  6
CONTINUOUS
 62
     7
 10
39.75
 20
93.679663015523687
 30
0.0
 40
1.25
  0
CIRCLE
  5
117
  8
PATTERN_FILL
  6
CONTINUOUS
 62
     7
 10
43.549999999999983
 20
93.679663015523687
 30
0.0
 40
1.25
  0
CIRCLE
  5
118
  8
PATTERN_FILL
  6
CONTINUOUS
 62
     7
 10
47.34999999999998
 20
93.679663015523687
 30
0.0
 40
1.25
  0
ARC
  5
119
  8
PATTERN_FILL
  6
CONTINUOUS
 62
     7
 10
-40.04999999999999
 20
89.879663015523676
 30
0.0
 40
1.250000000000006
 50
284.34240822307879
 51
85.647912755459302
  0
CIRCLE
  5
11A
  8
PATTERN_FILL
  6
CONTINUOUS
 62
     7
 10
-36.25
 20
89.879663015523676
 30
0.0
 40
1.25
  0
CIRCLE
  5
11B
  8
PATTERN_FILL
  6
CONTINUOUS
 62
     7
 10
-32.449999999999967
 20
89.879663015523676
 30
0.0
 40
1.25
  0
CIRCLE
  5
11C
  8
PATTERN_FILL
  6
CONTINUOUS
 62
     7
 10
-28.649999999999991
 20
89.879663015523676
 30
0.0
 40
1.250000000000014
  0
CIRCLE
  5
11D
  8
PATTERN_FILL
  6
CONTINUOUS
 62
     7
 10
-24.84999999999998
 20
89.879663015523676
 30
0.0
 40
1.25
  0
CIRCLE
  5
11E
  8
PATTERN_FILL
  6
CONTINUOUS
 62
     7
 10
-21.049999999999979
 20
89.879663015523676
 30
0.0
 40
1.25
  0
CIRCLE
  5
11F
  8
PATTERN_FILL
  6
CONTINUOUS
 62
     7
 10
-17.249999999999979
 20
89.879663015523676
 30
0.0
 40
1.25
  0
CIRCLE
  5
120
  8
PATTERN_FILL
  6
CONTINUOUS
 62
     7
 10
-13.449999999999971
 20
89.879663015523676
 30
0.0
 40
1.25
  0
CIRCLE
  5
121
  8
PATTERN_FILL
  6
CONTINUOUS
 62
     7
 10
-9.6499999999999755
 20
89.879663015523676
 30
0.0
 40
1.25
  0
CIRCLE
  5
122
  8
PATTERN_FILL
  6
CONTINUOUS
 62
     7
 10
-5.8499999999999801
 20
89.879663015523676
 30
0.0
 40
1.25
  0
CIRCLE
  5
123
  8
PATTERN_FILL
  6
CONTINUOUS
 62
     7
 10
-2.0499999999999821
 20
89.879663015523676
 30
0.0
 40
1.25
  0
CIRCLE
  5
124
  8
PATTERN_FILL
  6
CONTINUOUS
 62
     7
 10
1.750000000000014
 20
89.879663015523676
 30
0.0
 40
1.25
  0
CIRCLE
  5
125
  8
PATTERN_FILL
  6
CONTINUOUS
 62
     7
 10
5.5500000000000114
 20
89.879663015523676
 30
0.0
 40
1.25
  0
CIRCLE
  5
126
  8
PATTERN_FILL
  6
CONTINUOUS
 62
     7
 10
9.3500000000000085
 20
89.879663015523676
 30
0.0
 40
1.25
  0
CIRCLE
  5
127
  8
PATTERN_FILL
  6
CONTINUOUS
 62
     7
 10
13.15
 20
89.879663015523676
 30
0.0
 40
1.25
  0
CIRCLE
  5
128
  8
PATTERN_FILL
  6
CONTINUOUS
 62
     7
 10
16.949999999999999
 20
89.879663015523676
 30
0.0
 40
1.25
  0
CIRCLE
  5
129
  8
PATTERN_FILL
  6
CONTINUOUS
 62
     7
 10
20.75
 20
89.879663015523676
 30
0.0
 40
1.25
  0
CIRCLE
  5
12A
  8
PATTERN_FILL
  6
CONTINUOUS
 62
     7
 10
24.550000000000001
 20
89.879663015523676
 30
0.0
 40
1.25
  0
CIRCLE
  5
12B
  8
PATTERN_FILL
  6
CONTINUOUS
 62
     7
 10
28.349999999999991
 20
89.879663015523676
 30
0.0
 40
1.25
  0
CIRCLE
  5
12C
  8
PATTERN_FILL
  6
CONTINUOUS
 62
     7
 10
32.149999999999991
 20
89.879663015523676
 30
0.0
 40
1.25
  0
CIRCLE
  5
12D
  8
PATTERN_FILL
  6
CONTINUOUS
 62
     7
 10
35.949999999999989
 20
89.879663015523676
 30
0.0
 40
1.25
  0
CIRCLE
  5
12E
  8
PATTERN_FILL
  6
CONTINUOUS
 62
     7
 10
39.75
 20
89.879663015523676
 30
0.0
 40
1.25
  0
CIRCLE
  5
12F
  8
PATTERN_FILL
  6
CONTINUOUS
 62
     7
 10
43.549999999999983
 20
89.879663015523676
 30
0.0
 40
1.25
  0
CIRCLE
  5
130
  8
PATTERN_FILL
  6
CONTINUOUS
 62
     7
 10
47.34999999999998
 20
89.879663015523676
 30
0.0
 40
1.25
  0
ARC
  5
131
  8
PATTERN_FILL
  6
CONTINUOUS
 62
     7
 10
-40.049999999999969
 20
86.079663015523707
 30
0.0
 40
1.2499999999999969
 50
300.27978372784207
 51
69.710537250704078
  0
CIRCLE
  5
132
  8
PATTERN_FILL
  6
CONTINUOUS
 62
     7
 10
-36.25
 20
86.079663015523707
 30
0.0
 40
1.25
  0
CIRCLE
  5
133
  8
PATTERN_FILL
  6
CONTINUOUS
 62
     7
 10
-32.449999999999967
 20
86.079663015523707
 30
0.0
 40
1.25
  0
CIRCLE
  5
134
  8
PATTERN_FILL
  6
CONTINUOUS
 62
     7
 10
-28.649999999999991
 20
86.079663015523707
 30
0.0
 40
1.250000000000014
  0
CIRCLE
  5
135
  8
PATTERN_FILL
  6
CONTINUOUS
 62
     7
 10
-24.84999999999998
 20
86.079663015523707
 30
0.0
 40
1.25
  0
CIRCLE
  5
136
  8
PATTERN_FILL
  6
CONTINUOUS
 62
     7
 10
-21.049999999999979
 20
86.079663015523707
 30
0.0
 40
1.25
  0
CIRCLE
  5
137
  8
PATTERN_FILL
  6
CONTINUOUS
 62
     7
 10
-17.249999999999979
 20
86.079663015523707
 30
0.0
 40
1.25
  0
CIRCLE
  5
138
  8
PATTERN_FILL
  6
CONTINUOUS
 62
     7
 10
-13.449999999999971
 20
86.079663015523707
 30
0.0
 40
1.25
  0
CIRCLE
  5
139
  8
PATTERN_FILL
  6
CONTINUOUS
 62
     7
 10
-9.6499999999999755
 20
86.079663015523707
 30
0.0
 40
1.25
  0
CIRCLE
  5
13A
  8
PATTERN_FILL
  6
CONTINUOUS
 62
     7
 10
-5.8499999999999801
 20
86.079663015523707
 30
0.0
 40
1.25
  0
CIRCLE
  5
13B
  8
PATTERN_FILL
  6
CONTINUOUS
 62
     7
 10
-2.0499999999999821
 20
86.079663015523707
 30
0.0
 40
1.25
  0
CIRCLE
  5
13C
  8
PATTERN_FILL
  6
CONTINUOUS
 62
     7
 10
1.750000000000014
 20
86.079663015523707
 30
0.0
 40
1.25
  0
CIRCLE
  5
13D
  8
PATTERN_FILL
  6
CONTINUOUS
 62
     7
 10
5.5500000000000114
 20
86.079663015523707
 30
0.0
 40
1.25
  0
CIRCLE
  5
13E
  8
PATTERN_FILL
  6
CONTINUOUS
 62
     7
 10
9.3500000000000085
 20
86.079663015523707
 30
0.0
 40
1.25
  0
CIRCLE
  5
13F
  8
PATTERN_FILL
  6
CONTINUOUS
 62
     7
 10
13.15
 20
86.079663015523707
 30
0.0
 40
1.25
  0
CIRCLE
  5
140
  8
PATTERN_FILL
  6
CONTINUOUS
 62
     7
 10
16.949999999999999
 20
86.079663015523707
 30
0.0
 40
1.25
  0
CIRCLE
  5
141
  8
PATTERN_FILL
  6
CONTINUOUS
 62
     7
 10
20.75
 20
86.079663015523707
 30
0.0
 40
1.25
  0
CIRCLE
  5
142
  8
PATTERN_FILL
  6
CONTINUOUS
 62
     7
 10
24.550000000000001
 20
86.079663015523707
 30
0.0
 40
1.25
  0
CIRCLE
  5
143
  8
PATTERN_FILL
  6
CONTINUOUS
 62
     7
 10
28.349999999999991
 20
86.079663015523707
 30
0.0
 40
1.25
  0
CIRCLE
  5
144
  8
PATTERN_FILL
  6
CONTINUOUS
 62
     7
 10
32.149999999999991
 20
86.079663015523707
 30
0.0
 40
1.25
  0
CIRCLE
  5
145
  8
PATTERN_FILL
  6
CONTINUOUS
 62
     7
 10
35.949999999999989
 20
86.079663015523707
 30
0.0
 40
1.25
  0
CIRCLE
  5
146
  8
PATTERN_FILL
  6
CONTINUOUS
 62
     7
 10
39.75
 20
86.079663015523707
 30
0.0
 40
1.25
  0
CIRCLE
  5
147
  8
PATTERN_FILL
  6
CONTINUOUS
 62
     7
 10
43.549999999999983
 20
86.079663015523707
 30
0.0
 40
1.25
  0
ARC
  5
148
  8
PATTERN_FILL
  6
CONTINUOUS
 62
     7
 10
47.34999999999998
 20
86.079663015523707
 30
0.0
 40
1.249999999999998
 50
16.922754917406721
 51
333.08692410405291
  0
ARC
  5
149
  8
PATTERN_FILL
  6
CONTINUOUS
 62
     7
 10
-40.04999999999999
 20
82.279663015523695
 30
0.0
 40
1.250000000000016
 50
318.76894591710573
 51
51.221375061426322
  0
CIRCLE
  5
14A
  8
PATTERN_FILL
  6
CONTINUOUS
 62
     7
 10
-36.25
 20
82.279663015523695
 30
0.0
 40
1.25
  0
CIRCLE
  5
14B
  8
PATTERN_FILL
  6
CONTINUOUS
 62
     7
 10
-32.449999999999967
 20
82.279663015523695
 30
0.0
 40
1.25
  0
CIRCLE
  5
14C
  8
PATTERN_FILL
  6
CONTINUOUS
 62
     7
 10
-28.649999999999991
 20
82.279663015523695
 30
0.0
 40
1.250000000000014
  0
CIRCLE
  5
14D
  8
PATTERN_FILL
  6
CONTINUOUS
 62
     7
 10
-24.84999999999998
 20
82.279663015523695
 30
0.0
 40
1.25
  0
CIRCLE
  5
14E
  8
PATTERN_FILL
  6
CONTINUOUS
 62
     7
 10
-21.049999999999979
 20
82.279663015523695
 30
0.0
 40
1.25
  0
CIRCLE
  5
14F
  8
PATTERN_FILL
  6
CONTINUOUS
 62
     7
 10
-17.249999999999979
 20
82.279663015523695
 30
0.0
 40
1.25
  0
CIRCLE
  5
150
  8
PATTERN_FILL
  6
CONTINUOUS
 62
     7
 10
-13.449999999999971
 20
82.279663015523695
 30
0.0
 40
1.25
  0
CIRCLE
  5
151
  8
PATTERN_FILL
  6
CONTINUOUS
 62
     7
 10
-9.6499999999999755
 20
82.279663015523695
 30
0.0
 40
1.25
  0
CIRCLE
  5
152
  8
PATTERN_FILL
  6
CONTINUOUS
 62
     7
 10
-5.8499999999999801
 20
82.279663015523695
 30
0.0
 40
1.25
  0
CIRCLE
  5
153
  8
PATTERN_FILL
  6
CONTINUOUS
 62
     7
 10
-2.0499999999999821
 20
82.279663015523695
 30
0.0
 40
1.25
  0
CIRCLE
  5
154
  8
PATTERN_FILL
  6
CONTINUOUS
 62
     7
 10
1.750000000000014
 20
82.279663015523695
 30
0.0
 40
1.25
  0
CIRCLE
  5
155
  8
PATTERN_FILL
  6
CONTINUOUS
 62
     7
 10
5.5500000000000114
 20
82.279663015523695
 30
0.0
 40
1.25
  0
CIRCLE
  5
156
  8
PATTERN_FILL
  6
CONTINUOUS
 62
     7
 10
9.3500000000000085
 20
82.279663015523695
 30
0.0
 40
1.25
  0
CIRCLE
  5
157
  8
PATTERN_FILL
  6
CONTINUOUS
 62
     7
 10
13.15
 20
82.279663015523695
 30
0.0
 40
1.25
  0
CIRCLE
  5
158
  8
PATTERN_FILL
  6
CONTINUOUS
 62
     7
 10
16.949999999999999
 20
82.279663015523695
 30
0.0
 40
1.25
  0
CIRCLE
  5
159
  8
PATTERN_FILL
  6
CONTINUOUS
 62
     7
 10
20.75
 20
82.279663015523695
 30
0.0
 40
1.25
  0
CIRCLE
  5
15A
  8
PATTERN_FILL
  6
CONTINUOUS
 62
     7
 10
24.550000000000001
 20
82.279663015523695
 30
0.0
 40
1.25
  0
CIRCLE
  5
15B
  8
PATTERN_FILL
  6
CONTINUOUS
 62
     7
 10
28.349999999999991
 20
82.279663015523695
 30
0.0
 40
1.25
  0
CIRCLE
  5
15C
  8
PATTERN_FILL
  6
CONTINUOUS
 62
     7
 10
32.149999999999991
 20
82.279663015523695
 30
0.0
 40
1.25
  0
CIRCLE
  5
15D
  8
PATTERN_FILL
  6
CONTINUOUS
 62
     7
 10
35.949999999999989
 20
82.279663015523695
 30
0.0
 40
1.25
  0
CIRCLE
  5
15E
  8
PATTERN_FILL
  6
CONTINUOUS
 62
     7
 10
39.75
 20
82.279663015523695
 30
0.0
 40
1.25
  0
CIRCLE
  5
15F
  8
PATTERN_FILL
  6
CONTINUOUS
 62
     7
 10
43.549999999999983
 20
82.279663015523695
 30
0.0
 40
1.25
  0
ARC
  5
160
  8
PATTERN_FILL
  6
CONTINUOUS
 62
     7
 10
47.34999999999998
 20
82.279663015523695
 30
0.0
 40
1.249999999999998
 50
43.474088478657791
 51
306.53559054280589
  0
ARC
  5
161
  8
PATTERN_FILL
  6
CONTINUOUS
 62
     7
 10
-40.04999999999999
 20
78.479663015523698
 30
0.0
 40
1.2500000000000291
 50
348.0355329994905
 51
21.954787979032741
  0
CIRCLE
  5
162
  8
PATTERN_FILL
  6
CONTINUOUS
 62
     7
 10
-36.25
 20
78.479663015523698
 30
0.0
 40
1.25
  0
CIRCLE
  5
163
  8
PATTERN_FILL
  6
CONTINUOUS
 62
     7
 10
-32.449999999999967
 20
78.479663015523698
 30
0.0
 40
1.25
  0
CIRCLE
  5
164
  8
PATTERN_FILL
  6
CONTINUOUS
 62
     7
 10
-28.649999999999991
 20
78.479663015523698
 30
0.0
 40
1.250000000000014
  0
CIRCLE
  5
165
  8
PATTERN_FILL
  6
CONTINUOUS
 62
     7
 10
-24.84999999999998
 20
78.479663015523698
 30
0.0
 40
1.25
  0
CIRCLE
  5
166
  8
PATTERN_FILL
  6
CONTINUOUS
 62
     7
 10
-21.049999999999979
 20
78.479663015523698
 30
0.0
 40
1.25
  0
CIRCLE
  5
167
  8
PATTERN_FILL
  6
CONTINUOUS
 62
     7
 10
-17.249999999999979
 20
78.479663015523698
 30
0.0
 40
1.25
  0
CIRCLE
  5
168
  8
PATTERN_FILL
  6
CONTINUOUS
 62
     7
 10
-13.449999999999971
 20
78.479663015523698
 30
0.0
 40
1.25
  0
CIRCLE
  5
169
  8
PATTERN_FILL
  6
CONTINUOUS
 62
     7
 10
-9.6499999999999755
 20
78.479663015523698
 30
0.0
 40
1.25
  0
CIRCLE
  5
16A
  8
PATTERN_FILL
  6
CONTINUOUS
 62
     7
 10
-5.8499999999999801
 20
78.479663015523698
 30
0.0
 40
1.25
  0
CIRCLE
  5
16B
  8
PATTERN_FILL
  6
CONTINUOUS
 62
     7
 10
-2.0499999999999821
 20
78.479663015523698
 30
0.0
 40
1.25
  0
CIRCLE
  5
16C
  8
PATTERN_FILL
  6
CONTINUOUS
 62
     7
 10
1.750000000000014
 20
78.479663015523698
 30
0.0
 40
1.25
  0
CIRCLE
  5
16D
  8
PATTERN_FILL
  6
CONTINUOUS
 62
     7
 10
5.5500000000000114
 20
78.479663015523698
 30
0.0
 40
1.25
  0
CIRCLE
  5
16E
  8
PATTERN_FILL
  6
CONTINUOUS
 62
     7
 10
9.3500000000000085
 20
78.479663015523698
 30
0.0
 40
1.25
  0
CIRCLE
  5
16F
  8
PATTERN_FILL
  6
CONTINUOUS
 62
     7
 10
13.15
 20
78.479663015523698
 30
0.0
 40
1.25
  0
CIRCLE
  5
170
  8
PATTERN_FILL
  6
CONTINUOUS
 62
     7
 10
16.949999999999999
 20
78.479663015523698
 30
0.0
 40
1.25
  0
CIRCLE
  5
171
  8
PATTERN_FILL
  6
CONTINUOUS
 62
     7
 10
20.75
 20
78.479663015523698
 30
0.0
 40
1.25
  0
CIRCLE
  5
172
  8
PATTERN_FILL
  6
CONTINUOUS
 62
     7
 10
24.550000000000001
 20
78.479663015523698
 30
0.0
 40
1.25
  0
CIRCLE
  5
173
  8
PATTERN_FILL
  6
CONTINUOUS
 62
     7
 10
28.349999999999991
 20
78.479663015523698
 30
0.0
 40
1.25
  0
CIRCLE
  5
174
  8
PATTERN_FILL
  6
CONTINUOUS
 62
     7
 10
32.149999999999991
 20
78.479663015523698
 30
0.0
 40
1.25
  0
CIRCLE
  5
175
  8
PATTERN_FILL
  6
CONTINUOUS
 62
     7
 10
35.949999999999989
 20
78.479663015523698
 30
0.0
 40
1.25
  0
CIRCLE
  5
176
  8
PATTERN_FILL
  6
CONTINUOUS
 62
     7
 10
39.75
 20
78.479663015523698
 30
0.0
 40
1.25
  0
CIRCLE
  5
177
  8
PATTERN_FILL
  6
CONTINUOUS
 62
     7
 10
43.549999999999983
 20
78.479663015523698
 30
0.0
 40
1.25
  0
ARC
  5
178
  8
PATTERN_FILL
  6
CONTINUOUS
 62
     7
 10
47.34999999999998
 20
78.479663015523698
 30
0.0
 40
1.2499999999999989
 50
61.531377721958769
 51
288.47830129950358
  0
CIRCLE
  5
179
  8
PATTERN_FILL
  6
CONTINUOUS
 62
     7
 10
-36.25
 20
74.679663015523701
 30
0.0
 40
1.25
  0
CIRCLE
  5
17A
  8
PATTERN_FILL
  6
CONTINUOUS
 62
     7
 10
-32.449999999999967
 20
74.679663015523701
 30
0.0
 40
1.25
  0
CIRCLE
  5
17B
  8
PATTERN_FILL
  6
CONTINUOUS
 62
     7
 10
-28.649999999999991
 20
74.679663015523701
 30
0.0
 40
1.250000000000014
  0
CIRCLE
  5
17C
  8
PATTERN_FILL
  6
CONTINUOUS
 62
     7
 10
-24.84999999999998
 20
74.679663015523701
 30
0.0
 40
1.25
  0
CIRCLE
  5
17D
  8
PATTERN_FILL
  6
CONTINUOUS
 62
     7
 10
-21.049999999999979
 20
74.679663015523701
 30
0.0
 40
1.25
  0
CIRCLE
  5
17E
  8
PATTERN_FILL
  6
CONTINUOUS
 62
     7
 10
-17.249999999999979
 20
74.679663015523701
 30
0.0
 40
1.25
  0
CIRCLE
  5
17F
  8
PATTERN_FILL
  6
CONTINUOUS
 62
     7
 10
-13.449999999999971
 20
74.679663015523701
 30
0.0
 40
1.25
  0
CIRCLE
  5
180
  8
PATTERN_FILL
  6
CONTINUOUS
 62
     7
 10
-9.6499999999999755
 20
74.679663015523701
 30
0.0
 40
1.25
  0
CIRCLE
  5
181
  8
PATTERN_FILL
  6
CONTINUOUS
 62
     7
 10
-5.8499999999999801
 20
74.679663015523701
 30
0.0
 40
1.25
  0
CIRCLE
  5
182
  8
PATTERN_FILL
  6
CONTINUOUS
 62
     7
 10
-2.0499999999999821
 20
74.679663015523701
 30
0.0
 40
1.25
  0
CIRCLE
  5
183
  8
PATTERN_FILL
  6
CONTINUOUS
 62
     7
 10
1.750000000000014
 20
74.679663015523701
 30
0.0
 40
1.25
  0
CIRCLE
  5
184
  8
PATTERN_FILL
  6
CONTINUOUS
 62
     7
 10
5.5500000000000114
 20
74.679663015523701
 30
0.0
 40
1.25
  0
CIRCLE
  5
185
  8
PATTERN_FILL
  6
CONTINUOUS
 62
     7
 10
9.3500000000000085
 20
74.679663015523701
 30
0.0
 40
1.25
  0
CIRCLE
  5
186
  8
PATTERN_FILL
  6
CONTINUOUS
 62
     7
 10
13.15
 20
74.679663015523701
 30
0.0
 40
1.25
  0
CIRCLE
  5
187
  8
PATTERN_FILL
  6
CONTINUOUS
 62
     7
 10
16.949999999999999
 20
74.679663015523701
 30
0.0
 40
1.25
  0
CIRCLE
  5
188
  8
PATTERN_FILL
  6
CONTINUOUS
 62
     7
 10
20.75
 20
74.679663015523701
 30
0.0
 40
1.25
  0
CIRCLE
  5
189
  8
PATTERN_FILL
  6
CONTINUOUS
 62
     7
 10
24.550000000000001
 20
74.679663015523701
 30
0.0
 40
1.25
  0
CIRCLE
  5
18A
  8
PATTERN_FILL
  6
CONTINUOUS
 62
     7
 10
28.349999999999991
 20
74.679663015523701
 30
0.0
 40
1.25
  0
CIRCLE
  5
18B
  8
PATTERN_FILL
  6
CONTINUOUS
 62
     7
 10
32.149999999999991
 20
74.679663015523701
 30
0.0
 40
1.25
  0
CIRCLE
  5
18C
  8
PATTERN_FILL
  6
CONTINUOUS
 62
     7
 10
35.949999999999989
 20
74.679663015523701
 30
0.0
 40
1.25
  0
CIRCLE
  5
18D
  8
PATTERN_FILL
  6
CONTINUOUS
 62
     7
 10
39.75
 20
74.679663015523701
 30
0.0
 40
1.25
  0
CIRCLE
  5
18E
  8
PATTERN_FILL
  6
CONTINUOUS
 62
     7
 10
43.549999999999983
 20
74.679663015523701
 30
0.0
 40
1.25
  0
ARC
  5
18F
  8
PATTERN_FILL
  6
CONTINUOUS
 62
     7
 10
47.34999999999998
 20
74.679663015523701
 30
0.0
 40
1.2499999999999929
 50
77.325628972761962
 51
272.68405004869919
  0
CIRCLE
  5
190
  8
PATTERN_FILL
  6
CONTINUOUS
 62
     7
 10
-36.25
 20
70.879663015523704
 30
0.0
 40
1.25
  0
CIRCLE
  5
191
  8
PATTERN_FILL
  6
CONTINUOUS
 62
     7
 10
-32.449999999999967
 20
70.879663015523704
 30
0.0
 40
1.25
  0
CIRCLE
  5
192
  8
PATTERN_FILL
  6
CONTINUOUS
 62
     7
 10
-28.649999999999991
 20
70.879663015523704
 30
0.0
 40
1.250000000000014
  0
CIRCLE
  5
193
  8
PATTERN_FILL
  6
CONTINUOUS
 62
     7
 10
-24.84999999999998
 20
70.879663015523704
 30
0.0
 40
1.25
  0
CIRCLE
  5
194
  8
PATTERN_FILL
  6
CONTINUOUS
 62
     7
 10
-21.049999999999979
 20
70.879663015523704
 30
0.0
 40
1.25
  0
CIRCLE
  5
195
  8
PATTERN_FILL
  6
CONTINUOUS
 62
     7
 10
-17.249999999999979
 20
70.879663015523704
 30
0.0
 40
1.25
  0
CIRCLE
  5
196
  8
PATTERN_FILL
  6
CONTINUOUS
 62
     7
 10
-13.449999999999971
 20
70.879663015523704
 30
0.0
 40
1.25
  0
CIRCLE
  5
197
  8
PATTERN_FILL
  6
CONTINUOUS
 62
     7
 10
-9.6499999999999755
 20
70.879663015523704
 30
0.0
 40
1.25
  0
CIRCLE
  5
198
  8
PATTERN_FILL
  6
CONTINUOUS
 62
     7
 10
-5.8499999999999801
 20
70.879663015523704
 30
0.0
 40
1.25
  0
CIRCLE
  5
199
  8
PATTERN_FILL
  6
CONTINUOUS
 62
     7
 10
-2.0499999999999821
 20
70.879663015523704
 30
0.0
 40
1.25
  0
CIRCLE
  5
19A
  8
PATTERN_FILL
  6
CONTINUOUS
 62
     7
 10
1.750000000000014
 20
70.879663015523704
 30
0.0
 40
1.25
  0
CIRCLE
  5
19B
  8
PATTERN_FILL
  6
CONTINUOUS
 62
     7
 10
5.5500000000000114
 20
70.879663015523704
 30
0.0
 40
1.25
  0
CIRCLE
  5
19C
  8
PATTERN_FILL
  6
CONTINUOUS
 62
     7
 10
9.3500000000000085
 20
70.879663015523704
 30
0.0
 40
1.25
  0
CIRCLE
  5
19D
  8
PATTERN_FILL
  6
CONTINUOUS
 62
     7
 10
13.15
 20
70.879663015523704
 30
0.0
 40
1.25
  0
CIRCLE
  5
19E
  8
PATTERN_FILL
  6
CONTINUOUS
 62
     7
 10
16.949999999999999
 20
70.879663015523704
 30
0.0
 40
1.25
  0
CIRCLE
  5
19F
  8
PATTERN_FILL
  6
CONTINUOUS
 62
     7
 10
20.75
 20
70.879663015523704
 30
0.0
 40
1.25
  0
CIRCLE
  5
1A0
  8
PATTERN_FILL
  6
CONTINUOUS
 62
     7
 10
24.550000000000001
 20
70.879663015523704
 30
0.0
 40
1.25
  0
CIRCLE
  5
1A1
  8
PATTERN_FILL
  6
CONTINUOUS
 62
     7
 10
28.349999999999991
 20
70.879663015523704
 30
0.0
 40
1.25
  0
CIRCLE
  5
1A2
  8
PATTERN_FILL
  6
CONTINUOUS
 62
     7
 10
32.149999999999991
 20
70.879663015523704
 30
0.0
 40
1.25
  0
CIRCLE
  5
1A3
  8
PATTERN_FILL
  6
CONTINUOUS
 62
     7
 10
35.949999999999989
 20
70.879663015523704
 30
0.0
 40
1.25
  0
CIRCLE
  5
1A4
  8
PATTERN_FILL
  6
CONTINUOUS
 62
     7
 10
39.75
 20
70.879663015523704
 30
0.0
 40
1.25
  0
CIRCLE
  5
1A5
  8
PATTERN_FILL
  6
CONTINUOUS
 62
     7
 10
43.549999999999983
 20
70.879663015523704
 30
0.0
 40
1.25
  0
ARC
  5
1A6
  8
PATTERN_FILL
  6
CONTINUOUS
 62
     7
 10
47.34999999999998
 20
70.879663015523704
 30
0.0
 40
1.2499999999999949
 50
92.536328403807516
 51
257.47335061765142
  0
CIRCLE
  5
1A7
  8
PATTERN_FILL
  6
CONTINUOUS
 62
     7
 10
-36.25
 20
67.079663015523707
 30
0.0
 40
1.25
  0
CIRCLE
  5
1A8
  8
PATTERN_FILL
  6
CONTINUOUS
 62
     7
 10
-32.449999999999967
 20
67.079663015523707
 30
0.0
 40
1.25
  0
CIRCLE
  5
1A9
  8
PATTERN_FILL
  6
CONTINUOUS
 62
     7
 10
-28.649999999999991
 20
67.079663015523707
 30
0.0
 40
1.250000000000014
  0
CIRCLE
  5
1AA
  8
PATTERN_FILL
  6
CONTINUOUS
 62
     7
 10
-24.84999999999998
 20
67.079663015523707
 30
0.0
 40
1.25
  0
CIRCLE
  5
1AB
  8
PATTERN_FILL
  6
CONTINUOUS
 62
     7
 10
-21.049999999999979
 20
67.079663015523707
 30
0.0
 40
1.25
  0
CIRCLE
  5
1AC
  8
PATTERN_FILL
  6
CONTINUOUS
 62
     7
 10
-17.249999999999979
 20
67.079663015523707
 30
0.0
 40
1.25
  0
CIRCLE
  5
1AD
  8
PATTERN_FILL
  6
CONTINUOUS
 62
     7
 10
-13.449999999999971
 20
67.079663015523707
 30
0.0
 40
1.25
  0
CIRCLE
  5
1AE
  8
PATTERN_FILL
  6
CONTINUOUS
 62
     7
 10
-9.6499999999999755
 20
67.079663015523707
 30
0.0
 40
1.25
  0
CIRCLE
  5
1AF
  8
PATTERN_FILL
  6
CONTINUOUS
 62
     7
 10
-5.8499999999999801
 20
67.079663015523707
 30
0.0
 40
1.25
  0
CIRCLE
  5
1B0
  8
PATTERN_FILL
  6
CONTINUOUS
 62
     7
 10
-2.0499999999999821
 20
67.079663015523707
 30
0.0
 40
1.25
  0
CIRCLE
  5
1B1
  8
PATTERN_FILL
  6
CONTINUOUS
 62
     7
 10
1.750000000000014
 20
67.079663015523707
 30
0.0
 40
1.25
  0
CIRCLE
  5
1B2
  8
PATTERN_FILL
  6
CONTINUOUS
 62
     7
 10
5.5500000000000114
 20
67.079663015523707
 30
0.0
 40
1.25
  0
CIRCLE
  5
1B3
  8
PATTERN_FILL
  6
CONTINUOUS
 62
     7
 10
9.3500000000000085
 20
67.079663015523707
 30
0.0
 40
1.25
  0
CIRCLE
  5
1B4
  8
PATTERN_FILL
  6
CONTINUOUS
 62
     7
 10
13.15
 20
67.079663015523707
 30
0.0
 40
1.25
  0
CIRCLE
  5
1B5
  8
PATTERN_FILL
  6
CONTINUOUS
 62
     7
 10
16.949999999999999
 20
67.079663015523707
 30
0.0
 40
1.25
  0
CIRCLE
  5
1B6
  8
PATTERN_FILL
  6
CONTINUOUS
 62
     7
 10
20.75
 20
67.079663015523707
 30
0.0
 40
1.25
  0
CIRCLE
  5
1B7
  8
PATTERN_FILL
  6
CONTINUOUS
 62
     7
 10
24.550000000000001
 20
67.079663015523707
 30
0.0
 40
1.25
  0
CIRCLE
  5
1B8
  8
PATTERN_FILL
  6
CONTINUOUS
 62
     7
 10
28.349999999999991
 20
67.079663015523707
 30
0.0
 40
1.25
  0
CIRCLE
  5
1B9
  8
PATTERN_FILL
  6
CONTINUOUS
 62
     7
 10
32.149999999999991
 20
67.079663015523707
 30
0.0
 40
1.25
  0
CIRCLE
  5
1BA
  8
PATTERN_FILL
  6
CONTINUOUS
 62
     7
 10
35.949999999999989
 20
67.079663015523707
 30
0.0
 40
1.25
  0
CIRCLE
  5
1BB
  8
PATTERN_FILL
  6
CONTINUOUS
 62
     7
 10
39.75
 20
67.079663015523707
 30
0.0
 40
1.25
  0
CIRCLE
  5
1BC
  8
PATTERN_FILL
  6
CONTINUOUS
 62
     7
 10
43.549999999999983
 20
67.079663015523707
 30
0.0
 40
1.25
  0
ARC
  5
1BD
  8
PATTERN_FILL
  6
CONTINUOUS
 62
     7
 10
47.34999999999998
 20
67.079663015523707
 30
0.0
 40
1.250000000000004
 50
108.3187649757722
 51
241.6909140456878
  0
CIRCLE
  5
1BE
  8
PATTERN_FILL
  6
CONTINUOUS
 62
     7
 10
-36.25
 20
63.27966301552371
 30
0.0
 40
1.25
  0
CIRCLE
  5
1BF
  8
PATTERN_FILL
  6
CONTINUOUS
 62
     7
 10
-32.449999999999967
 20
63.27966301552371
 30
0.0
 40
1.25
  0
CIRCLE
  5
1C0
  8
PATTERN_FILL
  6
CONTINUOUS
 62
     7
 10
-28.649999999999991
 20
63.27966301552371
 30
0.0
 40
1.250000000000014
  0
CIRCLE
  5
1C1
  8
PATTERN_FILL
  6
CONTINUOUS
 62
     7
 10
-24.84999999999998
 20
63.27966301552371
 30
0.0
 40
1.25
  0
CIRCLE
  5
1C2
  8
PATTERN_FILL
  6
CONTINUOUS
 62
     7
 10
-21.049999999999979
 20
63.27966301552371
 30
0.0
 40
1.25
  0
CIRCLE
  5
1C3
  8
PATTERN_FILL
  6
CONTINUOUS
 62
     7
 10
-17.249999999999979
 20
63.27966301552371
 30
0.0
 40
1.25
  0
CIRCLE
  5
1C4
  8
PATTERN_FILL
  6
CONTINUOUS
 62
     7
 10
-13.449999999999971
 20
63.27966301552371
 30
0.0
 40
1.25
  0
CIRCLE
  5
1C5
  8
PATTERN_FILL
  6
CONTINUOUS
 62
     7
 10
-9.6499999999999755
 20
63.27966301552371
 30
0.0
 40
1.25
  0
CIRCLE
  5
1C6
  8
PATTERN_FILL
  6
CONTINUOUS
 62
     7
 10
-5.8499999999999801
 20
63.27966301552371
 30
0.0
 40
1.25
  0
CIRCLE
  5
1C7
  8
PATTERN_FILL
  6
CONTINUOUS
 62
     7
 10
-2.0499999999999821
 20
63.27966301552371
 30
0.0
 40
1.25
  0
CIRCLE
  5
1C8
  8
PATTERN_FILL
  6
CONTINUOUS
 62
     7
 10
1.750000000000014
 20
63.27966301552371
 30
0.0
 40
1.25
  0
CIRCLE
  5
1C9
  8
PATTERN_FILL
  6
CONTINUOUS
 62
     7
 10
5.5500000000000114
 20
63.27966301552371
 30
0.0
 40
1.25
  0
CIRCLE
  5
1CA
  8
PATTERN_FILL
  6
CONTINUOUS
 62
     7
 10
9.3500000000000085
 20
63.27966301552371
 30
0.0
 40
1.25
  0
CIRCLE
  5
1CB
  8
PATTERN_FILL
  6
CONTINUOUS
 62
     7
 10
13.15
 20
63.27966301552371
 30
0.0
 40
1.25
  0
CIRCLE
  5
1CC
  8
PATTERN_FILL
  6
CONTINUOUS
 62
     7
 10
16.949999999999999
 20
63.27966301552371
 30
0.0
 40
1.25
  0
CIRCLE
  5
1CD
  8
PATTERN_FILL
  6
CONTINUOUS
 62
     7
 10
20.75
 20
63.27966301552371
 30
0.0
 40
1.25
  0
CIRCLE
  5
1CE
  8
PATTERN_FILL
  6
CONTINUOUS
 62
     7
 10
24.550000000000001
 20
63.27966301552371
 30
0.0
 40
1.25
  0
CIRCLE
  5
1CF
  8
PATTERN_FILL
  6
CONTINUOUS
 62
     7
 10
28.349999999999991
 20
63.27966301552371
 30
0.0
 40
1.25
  0
CIRCLE
  5
1D0
  8
PATTERN_FILL
  6
CONTINUOUS
 62
     7
 10
32.149999999999991
 20
63.27966301552371
 30
0.0
 40
1.25
  0
CIRCLE
  5
1D1
  8
PATTERN_FILL
  6
CONTINUOUS
 62
     7
 10
35.949999999999989
 20
63.27966301552371
 30
0.0
 40
1.25
  0
CIRCLE
  5
1D2
  8
PATTERN_FILL
  6
CONTINUOUS
 62
     7
 10
39.75
 20
63.27966301552371
 30
0.0
 40
1.25
  0
CIRCLE
  5
1D3
  8
PATTERN_FILL
  6
CONTINUOUS
 62
     7
 10
43.549999999999983
 20
63.27966301552371
 30
0.0
 40
1.25
  0
ARC
  5
1D4
  8
PATTERN_FILL
  6
CONTINUOUS
 62
     7
 10
47.34999999999998
 20
63.27966301552371
 30
0.0
 40
1.250000000000004
 50
126.34029035191941
 51
223.6693886695366
  0
ARC
  5
1D5
  8
PATTERN_FILL
  6
CONTINUOUS
 62
     7
 10
-36.250000000000028
 20
59.479663015523712
 30
0.0
 40
1.249999999999956
 50
226.5384022447864
 51
143.45191873374409
  0
CIRCLE
  5
1D6
  8
PATTERN_FILL
  6
CONTINUOUS
 62
     7
 10
-32.449999999999967
 20
59.479663015523712
 30
0.0
 40
1.25
  0
CIRCLE
  5
1D7
  8
PATTERN_FILL
  6
CONTINUOUS
 62
     7
 10
-28.649999999999991
 20
59.479663015523712
 30
0.0
 40
1.250000000000014
  0
CIRCLE
  5
1D8
  8
PATTERN_FILL
  6
CONTINUOUS
 62
     7
 10
-24.84999999999998
 20
59.479663015523712
 30
0.0
 40
1.25
  0
CIRCLE
  5
1D9
  8
PATTERN_FILL
  6
CONTINUOUS
 62
     7
 10
-21.049999999999979
 20
59.479663015523712
 30
0.0
 40
1.25
  0
CIRCLE
  5
1DA
  8
PATTERN_FILL
  6
CONTINUOUS
 62
     7
 10
-17.249999999999979
 20
59.479663015523712
 30
0.0
 40
1.25
  0
CIRCLE
  5
1DB
  8
PATTERN_FILL
  6
CONTINUOUS
 62
     7
 10
-13.449999999999971
 20
59.479663015523712
 30
0.0
 40
1.25
  0
CIRCLE
  5
1DC
  8
PATTERN_FILL
  6
CONTINUOUS
 62
     7
 10
-9.6499999999999755
 20
59.479663015523712
 30
0.0
 40
1.25
  0
CIRCLE
  5
1DD
  8
PATTERN_FILL
  6
CONTINUOUS
 62
     7
 10
-5.8499999999999801
 20
59.479663015523712
 30
0.0
 40
1.25
  0
CIRCLE
  5
1DE
  8
PATTERN_FILL
  6
CONTINUOUS
 62
     7
 10
-2.0499999999999821
 20
59.479663015523712
 30
0.0
 40
1.25
  0
CIRCLE
  5
1DF
  8
PATTERN_FILL
  6
CONTINUOUS
 62
     7
 10
1.750000000000014
 20
59.479663015523712
 30
0.0
 40
1.25
  0
CIRCLE
  5
1E0
  8
PATTERN_FILL
  6
CONTINUOUS
 62
     7
 10
5.5500000000000114
 20
59.479663015523712
 30
0.0
 40
1.25
  0
CIRCLE
  5
1E1
  8
PATTERN_FILL
  6
CONTINUOUS
 62
     7
 10
9.3500000000000085
 20
59.479663015523712
 30
0.0
 40
1.25
  0
CIRCLE
  5
1E2
  8
PATTERN_FILL
  6
CONTINUOUS
 62
     7
 10
13.15
 20
59.479663015523712
 30
0.0
 40
1.25
  0
CIRCLE
  5
1E3
  8
PATTERN_FILL
  6
CONTINUOUS
 62
     7
 10
16.949999999999999
 20
59.479663015523712
 30
0.0
 40
1.25
  0
CIRCLE
  5
1E4
  8
PATTERN_FILL
  6
CONTINUOUS
 62
     7
 10
20.75
 20
59.479663015523712
 30
0.0
 40
1.25
  0
CIRCLE
  5
1E5
  8
PATTERN_FILL
  6
CONTINUOUS
 62
     7
 10
24.550000000000001
 20
59.479663015523712
 30
0.0
 40
1.25
  0
CIRCLE
  5
1E6
  8
PATTERN_FILL
  6
CONTINUOUS
 62
     7
 10
28.349999999999991
 20
59.479663015523712
 30
0.0
 40
1.25
  0
CIRCLE
  5
1E7
  8
PATTERN_FILL
  6
CONTINUOUS
 62
     7
 10
32.149999999999991
 20
59.479663015523712
 30
0.0
 40
1.25
  0
CIRCLE
  5
1E8
  8
PATTERN_FILL
  6
CONTINUOUS
 62
     7
 10
35.949999999999989
 20
59.479663015523712
 30
0.0
 40
1.25
  0
CIRCLE
  5
1E9
  8
PATTERN_FILL
  6
CONTINUOUS
 62
     7
 10
39.75
 20
59.479663015523712
 30
0.0
 40
1.25
  0
CIRCLE
  5
1EA
  8
PATTERN_FILL
  6
CONTINUOUS
 62
     7
 10
43.549999999999983
 20
59.479663015523712
 30
0.0
 40
1.25
  0
ARC
  5
1EB
  8
PATTERN_FILL
  6
CONTINUOUS
 62
     7
 10
47.34999999999998
 20
59.479663015523712
 30
0.0
 40
1.249999999999996
 50
152.6979423570547
 51
197.31173666439599
  0
ARC
  5
1EC
  8
PATTERN_FILL
  6
CONTINUOUS
 62
     7
 10
-36.25
 20
55.679663015523722
 30
0.0
 40
1.2500000000000011
 50
246.0640441437144
 51
123.92627683483749
  0
CIRCLE
  5
1ED
  8
PATTERN_FILL
  6
CONTINUOUS
 62
     7
 10
-32.449999999999967
 20
55.679663015523722
 30
0.0
 40
1.25
  0
CIRCLE
  5
1EE
  8
PATTERN_FILL
  6
CONTINUOUS
 62
     7
 10
-28.649999999999991
 20
55.679663015523722
 30
0.0
 40
1.250000000000014
  0
CIRCLE
  5
1EF
  8
PATTERN_FILL
  6
CONTINUOUS
 62
     7
 10
-24.84999999999998
 20
55.679663015523722
 30
0.0
 40
1.25
  0
CIRCLE
  5
1F0
  8
PATTERN_FILL
  6
CONTINUOUS
 62
     7
 10
-21.049999999999979
 20
55.679663015523722
 30
0.0
 40
1.25
  0
CIRCLE
  5
1F1
  8
PATTERN_FILL
  6
CONTINUOUS
 62
     7
 10
-17.249999999999979
 20
55.679663015523722
 30
0.0
 40
1.25
  0
CIRCLE
  5
1F2
  8
PATTERN_FILL
  6
CONTINUOUS
 62
     7
 10
-13.449999999999971
 20
55.679663015523722
 30
0.0
 40
1.25
  0
CIRCLE
  5
1F3
  8
PATTERN_FILL
  6
CONTINUOUS
 62
     7
 10
-9.6499999999999755
 20
55.679663015523722
 30
0.0
 40
1.25
  0
CIRCLE
  5
1F4
  8
PATTERN_FILL
  6
CONTINUOUS
 62
     7
 10
-5.8499999999999801
 20
55.679663015523722
 30
0.0
 40
1.25
  0
CIRCLE
  5
1F5
  8
PATTERN_FILL
  6
CONTINUOUS
 62
     7
 10
-2.0499999999999821
 20
55.679663015523722
 30
0.0
 40
1.25
  0
CIRCLE
  5
1F6
  8
PATTERN_FILL
  6
CONTINUOUS
 62
     7
 10
1.750000000000014
 20
55.679663015523722
 30
0.0
 40
1.25
  0
CIRCLE
  5
1F7
  8
PATTERN_FILL
  6
CONTINUOUS
 62
     7
 10
5.5500000000000114
 20
55.679663015523722
 30
0.0
 40
1.25
  0
CIRCLE
  5
1F8
  8
PATTERN_FILL
  6
CONTINUOUS
 62
     7
 10
9.3500000000000085
 20
55.679663015523722
 30
0.0
 40
1.25
  0
CIRCLE
  5
1F9
  8
PATTERN_FILL
  6
CONTINUOUS
 62
     7
 10
13.15
 20
55.679663015523722
 30
0.0
 40
1.25
  0
CIRCLE
  5
1FA
  8
PATTERN_FILL
  6
CONTINUOUS
 62
     7
 10
16.949999999999999
 20
55.679663015523722
 30
0.0
 40
1.25
  0
CIRCLE
  5
1FB
  8
PATTERN_FILL
  6
CONTINUOUS
 62
     7
 10
20.75
 20
55.679663015523722
 30
0.0
 40
1.25
  0
CIRCLE
  5
1FC
  8
PATTERN_FILL
  6
CONTINUOUS
 62
     7
 10
24.550000000000001
 20
55.679663015523722
 30
0.0
 40
1.25
  0
CIRCLE
  5
1FD
  8
PATTERN_FILL
  6
CONTINUOUS
 62
     7
 10
28.349999999999991
 20
55.679663015523722
 30
0.0
 40
1.25
  0
CIRCLE
  5
1FE
  8
PATTERN_FILL
  6
CONTINUOUS
 62
     7
 10
32.149999999999991
 20
55.679663015523722
 30
0.0
 40
1.25
  0
CIRCLE
  5
1FF
  8
PATTERN_FILL
  6
CONTINUOUS
 62
     7
 10
35.949999999999989
 20
55.679663015523722
 30
0.0
 40
1.25
  0
CIRCLE
  5
200
  8
PATTERN_FILL
  6
CONTINUOUS
 62
     7
 10
39.75
 20
55.679663015523722
 30
0.0
 40
1.25
  0
CIRCLE
  5
201
  8
PATTERN_FILL
  6
CONTINUOUS
 62
     7
 10
43.549999999999983
 20
55.679663015523722
 30
0.0
 40
1.25
  0
ARC
  5
202
  8
PATTERN_FILL
  6
CONTINUOUS
 62
     7
 10
-36.25
 20
51.879663015523732
 30
0.0
 40
1.2500000000000171
 50
262.3413262017076
 51
107.6489947768323
  0
CIRCLE
  5
203
  8
PATTERN_FILL
  6
CONTINUOUS
 62
     7
 10
-32.449999999999967
 20
51.879663015523711
 30
0.0
 40
1.25
  0
CIRCLE
  5
204
  8
PATTERN_FILL
  6
CONTINUOUS
 62
     7
 10
-28.649999999999991
 20
51.879663015523711
 30
0.0
 40
1.250000000000014
  0
CIRCLE
  5
205
  8
PATTERN_FILL
  6
CONTINUOUS
 62
     7
 10
-24.84999999999998
 20
51.879663015523711
 30
0.0
 40
1.25
  0
CIRCLE
  5
206
  8
PATTERN_FILL
  6
CONTINUOUS
 62
     7
 10
-21.049999999999979
 20
51.879663015523711
 30
0.0
 40
1.25
  0
CIRCLE
  5
207
  8
PATTERN_FILL
  6
CONTINUOUS
 62
     7
 10
-17.249999999999979
 20
51.879663015523711
 30
0.0
 40
1.25
  0
CIRCLE
  5
208
  8
PATTERN_FILL
  6
CONTINUOUS
 62
     7
 10
-13.449999999999971
 20
51.879663015523711
 30
0.0
 40
1.25
  0
CIRCLE
  5
209
  8
PATTERN_FILL
  6
CONTINUOUS
 62
     7
 10
-9.6499999999999755
 20
51.879663015523711
 30
0.0
 40
1.25
  0
CIRCLE
  5
20A
  8
PATTERN_FILL
  6
CONTINUOUS
 62
     7
 10
-5.8499999999999801
 20
51.879663015523711
 30
0.0
 40
1.25
  0
CIRCLE
  5
20B
  8
PATTERN_FILL
  6
CONTINUOUS
 62
     7
 10
-2.0499999999999821
 20
51.879663015523711
 30
0.0
 40
1.25
  0
CIRCLE
  5
20C
  8
PATTERN_FILL
  6
CONTINUOUS
 62
     7
 10
1.750000000000014
 20
51.879663015523711
 30
0.0
 40
1.25
  0
CIRCLE
  5
20D
  8
PATTERN_FILL
  6
CONTINUOUS
 62
     7
 10
5.5500000000000114
 20
51.879663015523711
 30
0.0
 40
1.25
  0
CIRCLE
  5
20E
  8
PATTERN_FILL
  6
CONTINUOUS
 62
     7
 10
9.3500000000000085
 20
51.879663015523711
 30
0.0
 40
1.25
  0
CIRCLE
  5
20F
  8
PATTERN_FILL
  6
CONTINUOUS
 62
     7
 10
13.15
 20
51.879663015523711
 30
0.0
 40
1.25
  0
CIRCLE
  5
210
  8
PATTERN_FILL
  6
CONTINUOUS
 62
     7
 10
16.949999999999999
 20
51.879663015523711
 30
0.0
 40
1.25
  0
CIRCLE
  5
211
  8
PATTERN_FILL
  6
CONTINUOUS
 62
     7
 10
20.75
 20
51.879663015523711
 30
0.0
 40
1.25
  0
CIRCLE
  5
212
  8
PATTERN_FILL
  6
CONTINUOUS
 62
     7
 10
24.550000000000001
 20
51.879663015523711
 30
0.0
 40
1.25
  0
CIRCLE
  5
213
  8
PATTERN_FILL
  6
CONTINUOUS
 62
     7
 10
28.349999999999991
 20
51.879663015523711
 30
0.0
 40
1.25
  0
CIRCLE
  5
214
  8
PATTERN_FILL
  6
CONTINUOUS
 62
     7
 10
32.149999999999991
 20
51.879663015523711
 30
0.0
 40
1.25
  0
CIRCLE
  5
215
  8
PATTERN_FILL
  6
CONTINUOUS
 62
     7
 10
35.949999999999989
 20
51.879663015523711
 30
0.0
 40
1.25
  0
CIRCLE
  5
216
  8
PATTERN_FILL
  6
CONTINUOUS
 62
     7
 10
39.75
 20
51.879663015523711
 30
0.0
 40
1.25
  0
CIRCLE
  5
217
  8
PATTERN_FILL
  6
CONTINUOUS
 62
     7
 10
43.549999999999983
 20
51.879663015523711
 30
0.0
 40
1.25
  0
ARC
  5
218
  8
PATTERN_FILL
  6
CONTINUOUS
 62
     7
 10
-36.25
 20
48.0796630155237
 30
0.0
 40
1.249999999999992
 50
277.61090843837701
 51
92.379412540161866
  0
CIRCLE
  5
219
  8
PATTERN_FILL
  6
CONTINUOUS
 62
     7
 10
-32.449999999999967
 20
48.079663015523721
 30
0.0
 40
1.25
  0
CIRCLE
  5
21A
  8
PATTERN_FILL
  6
CONTINUOUS
 62
     7
 10
-28.649999999999991
 20
48.079663015523721
 30
0.0
 40
1.250000000000014
  0
CIRCLE
  5
21B
  8
PATTERN_FILL
  6
CONTINUOUS
 62
     7
 10
-24.84999999999998
 20
48.079663015523721
 30
0.0
 40
1.25
  0
CIRCLE
  5
21C
  8
PATTERN_FILL
  6
CONTINUOUS
 62
     7
 10
-21.049999999999979
 20
48.079663015523721
 30
0.0
 40
1.25
  0
CIRCLE
  5
21D
  8
PATTERN_FILL
  6
CONTINUOUS
 62
     7
 10
-17.249999999999979
 20
48.079663015523721
 30
0.0
 40
1.25
  0
CIRCLE
  5
21E
  8
PATTERN_FILL
  6
CONTINUOUS
 62
     7
 10
-13.449999999999971
 20
48.079663015523721
 30
0.0
 40
1.25
  0
CIRCLE
  5
21F
  8
PATTERN_FILL
  6
CONTINUOUS
 62
     7
 10
-9.6499999999999755
 20
48.079663015523721
 30
0.0
 40
1.25
  0
CIRCLE
  5
220
  8
PATTERN_FILL
  6
CONTINUOUS
 62
     7
 10
-5.8499999999999801
 20
48.079663015523721
 30
0.0
 40
1.25
  0
CIRCLE
  5
221
  8
PATTERN_FILL
  6
CONTINUOUS
 62
     7
 10
-2.0499999999999821
 20
48.079663015523721
 30
0.0
 40
1.25
  0
CIRCLE
  5
222
  8
PATTERN_FILL
  6
CONTINUOUS
 62
     7
 10
1.750000000000014
 20
48.079663015523721
 30
0.0
 40
1.25
  0
CIRCLE
  5
223
  8
PATTERN_FILL
  6
CONTINUOUS
 62
     7
 10
5.5500000000000114
 20
48.079663015523721
 30
0.0
 40
1.25
  0
CIRCLE
  5
224
  8
PATTERN_FILL
  6
CONTINUOUS
 62
     7
 10
9.3500000000000085
 20
48.079663015523721
 30
0.0
 40
1.25
  0
CIRCLE
  5
225
  8
PATTERN_FILL
  6
CONTINUOUS
 62
     7
 10
13.15
 20
48.079663015523721
 30
0.0
 40
1.25
  0
CIRCLE
  5
226
  8
PATTERN_FILL
  6
CONTINUOUS
 62
     7
 10
16.949999999999999
 20
48.079663015523721
 30
0.0
 40
1.25
  0
CIRCLE
  5
227
  8
PATTERN_FILL
  6
CONTINUOUS
 62
     7
 10
20.75
 20
48.079663015523721
 30
0.0
 40
1.25
  0
CIRCLE
  5
228
  8
PATTERN_FILL
  6
CONTINUOUS
 62
     7
 10
24.550000000000001
 20
48.079663015523721
 30
0.0
 40
1.25
  0
CIRCLE
  5
229
  8
PATTERN_FILL
  6
CONTINUOUS
 62
     7
 10
28.349999999999991
 20
48.079663015523721
 30
0.0
 40
1.25
  0
CIRCLE
  5
22A
  8
PATTERN_FILL
  6
CONTINUOUS
 62
     7
 10
32.149999999999991
 20
48.079663015523721
 30
0.0
 40
1.25
  0
CIRCLE
  5
22B
  8
PATTERN_FILL
  6
CONTINUOUS
 62
     7
 10
35.949999999999989
 20
48.079663015523721
 30
0.0
 40
1.25
  0
CIRCLE
  5
22C
  8
PATTERN_FILL
  6
CONTINUOUS
 62
     7
 10
39.75
 20
48.079663015523721
 30
0.0
 40
1.25
  0
CIRCLE
  5
22D
  8
PATTERN_FILL
  6
CONTINUOUS
 62
     7
 10
43.549999999999983
 20
48.079663015523721
 30
0.0
 40
1.25
  0
ARC
  5
22E
  8
PATTERN_FILL
  6
CONTINUOUS
 62
     7
 10
-36.25
 20
44.27966301552371
 30
0.0
 40
1.249999999999986
 50
293.0745938280217
 51
76.915727150519146
  0
CIRCLE
  5
22F
  8
PATTERN_FILL
  6
CONTINUOUS
 62
     7
 10
-32.449999999999967
 20
44.279663015523717
 30
0.0
 40
1.25
  0
CIRCLE
  5
230
  8
PATTERN_FILL
  6
CONTINUOUS
 62
     7
 10
-28.649999999999991
 20
44.279663015523717
 30
0.0
 40
1.250000000000014
  0
CIRCLE
  5
231
  8
PATTERN_FILL
  6
CONTINUOUS
 62
     7
 10
-24.84999999999998
 20
44.279663015523717
 30
0.0
 40
1.25
  0
CIRCLE
  5
232
  8
PATTERN_FILL
  6
CONTINUOUS
 62
     7
 10
-21.049999999999979
 20
44.279663015523717
 30
0.0
 40
1.25
  0
CIRCLE
  5
233
  8
PATTERN_FILL
  6
CONTINUOUS
 62
     7
 10
-17.249999999999979
 20
44.279663015523717
 30
0.0
 40
1.25
  0
CIRCLE
  5
234
  8
PATTERN_FILL
  6
CONTINUOUS
 62
     7
 10
-13.449999999999971
 20
44.279663015523717
 30
0.0
 40
1.25
  0
CIRCLE
  5
235
  8
PATTERN_FILL
  6
CONTINUOUS
 62
     7
 10
-9.6499999999999755
 20
44.279663015523717
 30
0.0
 40
1.25
  0
CIRCLE
  5
236
  8
PATTERN_FILL
  6
CONTINUOUS
 62
     7
 10
-5.8499999999999801
 20
44.279663015523717
 30
0.0
 40
1.25
  0
CIRCLE
  5
237
  8
PATTERN_FILL
  6
CONTINUOUS
 62
     7
 10
-2.0499999999999821
 20
44.279663015523717
 30
0.0
 40
1.25
  0
CIRCLE
  5
238
  8
PATTERN_FILL
  6
CONTINUOUS
 62
     7
 10
1.750000000000014
 20
44.279663015523717
 30
0.0
 40
1.25
  0
CIRCLE
  5
239
  8
PATTERN_FILL
  6
CONTINUOUS
 62
     7
 10
5.5500000000000114
 20
44.279663015523717
 30
0.0
 40
1.25
  0
CIRCLE
  5
23A
  8
PATTERN_FILL
  6
CONTINUOUS
 62
     7
 10
9.3500000000000085
 20
44.279663015523717
 30
0.0
 40
1.25
  0
CIRCLE
  5
23B
  8
PATTERN_FILL
  6
CONTINUOUS
 62
     7
 10
13.15
 20
44.279663015523717
 30
0.0
 40
1.25
  0
CIRCLE
  5
23C
  8
PATTERN_FILL
  6
CONTINUOUS
 62
     7
 10
16.949999999999999
 20
44.279663015523717
 30
0.0
 40
1.25
  0
CIRCLE
  5
23D
  8
PATTERN_FILL
  6
CONTINUOUS
 62
     7
 10
20.75
 20
44.279663015523717
 30
0.0
 40
1.25
  0
CIRCLE
  5
23E
  8
PATTERN_FILL
  6
CONTINUOUS
 62
     7
 10
24.550000000000001
 20
44.279663015523717
 30
0.0
 40
1.25
  0
CIRCLE
  5
23F
  8
PATTERN_FILL
  6
CONTINUOUS
 62
     7
 10
28.349999999999991
 20
44.279663015523717
 30
0.0
 40
1.25
  0
CIRCLE
  5
240
  8
PATTERN_FILL
  6
CONTINUOUS
 62
     7
 10
32.149999999999991
 20
44.279663015523717
 30
0.0
 40
1.25
  0
CIRCLE
  5
241
  8
PATTERN_FILL
  6
CONTINUOUS
 62
     7
 10
35.949999999999989
 20
44.279663015523717
 30
0.0
 40
1.25
  0
CIRCLE
  5
242
  8
PATTERN_FILL
  6
CONTINUOUS
 62
     7
 10
39.75
 20
44.279663015523717
 30
0.0
 40
1.25
  0
CIRCLE
  5
243
  8
PATTERN_FILL
  6
CONTINUOUS
 62
     7
 10
43.549999999999983
 20
44.279663015523717
 30
0.0
 40
1.25
  0
ARC
  5
244
  8
PATTERN_FILL
  6
CONTINUOUS
 62
     7
 10
-36.25
 20
40.479663015523727
 30
0.0
 40
1.2500000000000031
 50
310.09709501883498
 51
59.893225959707678
  0
CIRCLE
  5
245
  8
PATTERN_FILL
  6
CONTINUOUS
 62
     7
 10
-32.449999999999967
 20
40.479663015523727
 30
0.0
 40
1.25
  0
CIRCLE
  5
246
  8
PATTERN_FILL
  6
CONTINUOUS
 62
     7
 10
-28.649999999999991
 20
40.479663015523727
 30
0.0
 40
1.250000000000014
  0
CIRCLE
  5
247
  8
PATTERN_FILL
  6
CONTINUOUS
 62
     7
 10
-24.84999999999998
 20
40.479663015523727
 30
0.0
 40
1.25
  0
CIRCLE
  5
248
  8
PATTERN_FILL
  6
CONTINUOUS
 62
     7
 10
-21.049999999999979
 20
40.479663015523727
 30
0.0
 40
1.25
  0
CIRCLE
  5
249
  8
PATTERN_FILL
  6
CONTINUOUS
 62
     7
 10
-17.249999999999979
 20
40.479663015523727
 30
0.0
 40
1.25
  0
CIRCLE
  5
24A
  8
PATTERN_FILL
  6
CONTINUOUS
 62
     7
 10
-13.449999999999971
 20
40.479663015523727
 30
0.0
 40
1.25
  0
CIRCLE
  5
24B
  8
PATTERN_FILL
  6
CONTINUOUS
 62
     7
 10
-9.6499999999999755
 20
40.479663015523727
 30
0.0
 40
1.25
  0
CIRCLE
  5
24C
  8
PATTERN_FILL
  6
CONTINUOUS
 62
     7
 10
-5.8499999999999801
 20
40.479663015523727
 30
0.0
 40
1.25
  0
CIRCLE
  5
24D
  8
PATTERN_FILL
  6
CONTINUOUS
 62
     7
 10
-2.0499999999999821
 20
40.479663015523727
 30
0.0
 40
1.25
  0
CIRCLE
  5
24E
  8
PATTERN_FILL
  6
CONTINUOUS
 62
     7
 10
1.750000000000014
 20
40.479663015523727
 30
0.0
 40
1.25
  0
CIRCLE
  5
24F
  8
PATTERN_FILL
  6
CONTINUOUS
 62
     7
 10
5.5500000000000114
 20
40.479663015523727
 30
0.0
 40
1.25
  0
CIRCLE
  5
250
  8
PATTERN_FILL
  6
CONTINUOUS
 62
     7
 10
9.3500000000000085
 20
40.479663015523727
 30
0.0
 40
1.25
  0
CIRCLE
  5
251
  8
PATTERN_FILL
  6
CONTINUOUS
 62
     7
 10
13.15
 20
40.479663015523727
 30
0.0
 40
1.25
  0
CIRCLE
  5
252
  8
PATTERN_FILL
  6
CONTINUOUS
 62
     7
 10
16.949999999999999
 20
40.479663015523727
 30
0.0
 40
1.25
  0
CIRCLE
  5
253
  8
PATTERN_FILL
  6
CONTINUOUS
 62
     7
 10
20.75
 20
40.479663015523727
 30
0.0
 40
1.25
  0
CIRCLE
  5
254
  8
PATTERN_FILL
  6
CONTINUOUS
 62
     7
 10
24.550000000000001
 20
40.479663015523727
 30
0.0
 40
1.25
  0
CIRCLE
  5
255
  8
PATTERN_FILL
  6
CONTINUOUS
 62
     7
 10
28.349999999999991
 20
40.479663015523727
 30
0.0
 40
1.25
  0
CIRCLE
  5
256
  8
PATTERN_FILL
  6
CONTINUOUS
 62
     7
 10
32.149999999999991
 20
40.479663015523727
 30
0.0
 40
1.25
  0
CIRCLE
  5
257
  8
PATTERN_FILL
  6
CONTINUOUS
 62
     7
 10
35.949999999999989
 20
40.479663015523727
 30
0.0
 40
1.25
  0
CIRCLE
  5
258
  8
PATTERN_FILL
  6
CONTINUOUS
 62
     7
 10
39.75
 20
40.479663015523727
 30
0.0
 40
1.25
  0
ARC
  5
259
  8
PATTERN_FILL
  6
CONTINUOUS
 62
     7
 10
43.549999999999983
 20
40.479663015523727
 30
0.0
 40
1.249999999999996
 50
33.76239648034327
 51
316.24728254112108
  0
CIRCLE
  5
25A
  8
PATTERN_FILL
  6
CONTINUOUS
 62
     7
 10
-32.449999999999967
 20
36.679663015523722
 30
0.0
 40
1.25
  0
CIRCLE
  5
25B
  8
PATTERN_FILL
  6
CONTINUOUS
 62
     7
 10
-28.649999999999991
 20
36.679663015523722
 30
0.0
 40
1.250000000000014
  0
CIRCLE
  5
25C
  8
PATTERN_FILL
  6
CONTINUOUS
 62
     7
 10
-24.84999999999998
 20
36.679663015523722
 30
0.0
 40
1.25
  0
CIRCLE
  5
25D
  8
PATTERN_FILL
  6
CONTINUOUS
 62
     7
 10
-21.049999999999979
 20
36.679663015523722
 30
0.0
 40
1.25
  0
CIRCLE
  5
25E
  8
PATTERN_FILL
  6
CONTINUOUS
 62
     7
 10
-17.249999999999979
 20
36.679663015523722
 30
0.0
 40
1.25
  0
CIRCLE
  5
25F
  8
PATTERN_FILL
  6
CONTINUOUS
 62
     7
 10
-13.449999999999971
 20
36.679663015523722
 30
0.0
 40
1.25
  0
CIRCLE
  5
260
  8
PATTERN_FILL
  6
CONTINUOUS
 62
     7
 10
-9.6499999999999755
 20
36.679663015523722
 30
0.0
 40
1.25
  0
CIRCLE
  5
261
  8
PATTERN_FILL
  6
CONTINUOUS
 62
     7
 10
-5.8499999999999801
 20
36.679663015523722
 30
0.0
 40
1.25
  0
CIRCLE
  5
262
  8
PATTERN_FILL
  6
CONTINUOUS
 62
     7
 10
-2.0499999999999821
 20
36.679663015523722
 30
0.0
 40
1.25
  0
CIRCLE
  5
263
  8
PATTERN_FILL
  6
CONTINUOUS
 62
     7
 10
1.750000000000014
 20
36.679663015523722
 30
0.0
 40
1.25
  0
CIRCLE
  5
264
  8
PATTERN_FILL
  6
CONTINUOUS
 62
     7
 10
5.5500000000000114
 20
36.679663015523722
 30
0.0
 40
1.25
  0
CIRCLE
  5
265
  8
PATTERN_FILL
  6
CONTINUOUS
 62
     7
 10
9.3500000000000085
 20
36.679663015523722
 30
0.0
 40
1.25
  0
CIRCLE
  5
266
  8
PATTERN_FILL
  6
CONTINUOUS
 62
     7
 10
13.15
 20
36.679663015523722
 30
0.0
 40
1.25
  0
CIRCLE
  5
267
  8
PATTERN_FILL
  6
CONTINUOUS
 62
     7
 10
16.949999999999999
 20
36.679663015523722
 30
0.0
 40
1.25
  0
CIRCLE
  5
268
  8
PATTERN_FILL
  6
CONTINUOUS
 62
     7
 10
20.75
 20
36.679663015523722
 30
0.0
 40
1.25
  0
CIRCLE
  5
269
  8
PATTERN_FILL
  6
CONTINUOUS
 62
     7
 10
24.550000000000001
 20
36.679663015523722
 30
0.0
 40
1.25
  0
CIRCLE
  5
26A
  8
PATTERN_FILL
  6
CONTINUOUS
 62
     7
 10
28.349999999999991
 20
36.679663015523722
 30
0.0
 40
1.25
  0
CIRCLE
  5
26B
  8
PATTERN_FILL
  6
CONTINUOUS
 62
     7
 10
32.149999999999991
 20
36.679663015523722
 30
0.0
 40
1.25
  0
CIRCLE
  5
26C
  8
PATTERN_FILL
  6
CONTINUOUS
 62
     7
 10
35.949999999999989
 20
36.679663015523722
 30
0.0
 40
1.25
  0
CIRCLE
  5
26D
  8
PATTERN_FILL
  6
CONTINUOUS
 62
     7
 10
39.75
 20
36.679663015523722
 30
0.0
 40
1.25
  0
ARC
  5
26E
  8
PATTERN_FILL
  6
CONTINUOUS
 62
     7
 10
43.549999999999983
 20
36.679663015523722
 30
0.0
 40
1.249999999999998
 50
54.000415289962767
 51
296.00926373149809
  0
CIRCLE
  5
26F
  8
PATTERN_FILL
  6
CONTINUOUS
 62
     7
 10
-32.449999999999967
 20
32.879663015523732
 30
0.0
 40
1.25
  0
CIRCLE
  5
270
  8
PATTERN_FILL
  6
CONTINUOUS
 62
     7
 10
-28.649999999999991
 20
32.879663015523732
 30
0.0
 40
1.250000000000014
  0
CIRCLE
  5
271
  8
PATTERN_FILL
  6
CONTINUOUS
 62
     7
 10
-24.84999999999998
 20
32.879663015523732
 30
0.0
 40
1.25
  0
CIRCLE
  5
272
  8
PATTERN_FILL
  6
CONTINUOUS
 62
     7
 10
-21.049999999999979
 20
32.879663015523732
 30
0.0
 40
1.25
  0
CIRCLE
  5
273
  8
PATTERN_FILL
  6
CONTINUOUS
 62
     7
 10
-17.249999999999979
 20
32.879663015523732
 30
0.0
 40
1.25
  0
CIRCLE
  5
274
  8
PATTERN_FILL
  6
CONTINUOUS
 62
     7
 10
-13.449999999999971
 20
32.879663015523732
 30
0.0
 40
1.25
  0
CIRCLE
  5
275
  8
PATTERN_FILL
  6
CONTINUOUS
 62
     7
 10
-9.6499999999999755
 20
32.879663015523732
 30
0.0
 40
1.25
  0
CIRCLE
  5
276
  8
PATTERN_FILL
  6
CONTINUOUS
 62
     7
 10
-5.8499999999999801
 20
32.879663015523732
 30
0.0
 40
1.25
  0
CIRCLE
  5
277
  8
PATTERN_FILL
  6
CONTINUOUS
 62
     7
 10
-2.0499999999999821
 20
32.879663015523732
 30
0.0
 40
1.25
  0
CIRCLE
  5
278
  8
PATTERN_FILL
  6
CONTINUOUS
 62
     7
 10
1.750000000000014
 20
32.879663015523732
 30
0.0
 40
1.25
  0
CIRCLE
  5
279
  8
PATTERN_FILL
  6
CONTINUOUS
 62
     7
 10
5.5500000000000114
 20
32.879663015523732
 30
0.0
 40
1.25
  0
CIRCLE
  5
27A
  8
PATTERN_FILL
  6
CONTINUOUS
 62
     7
 10
9.3500000000000085
 20
32.879663015523732
 30
0.0
 40
1.25
  0
CIRCLE
  5
27B
  8
PATTERN_FILL
  6
CONTINUOUS
 62
     7
 10
13.15
 20
32.879663015523732
 30
0.0
 40
1.25
  0
CIRCLE
  5
27C
  8
PATTERN_FILL
  6
CONTINUOUS
 62
     7
 10
16.949999999999999
 20
32.879663015523732
 30
0.0
 40
1.25
  0
CIRCLE
  5
27D
  8
PATTERN_FILL
  6
CONTINUOUS
 62
     7
 10
20.75
 20
32.879663015523732
 30
0.0
 40
1.25
  0
CIRCLE
  5
27E
  8
PATTERN_FILL
  6
CONTINUOUS
 62
     7
 10
24.550000000000001
 20
32.879663015523732
 30
0.0
 40
1.25
  0
CIRCLE
  5
27F
  8
PATTERN_FILL
  6
CONTINUOUS
 62
     7
 10
28.349999999999991
 20
32.879663015523732
 30
0.0
 40
1.25
  0
CIRCLE
  5
280
  8
PATTERN_FILL
  6
CONTINUOUS
 62
     7
 10
32.149999999999991
 20
32.879663015523732
 30
0.0
 40
1.25
  0
CIRCLE
  5
281
  8
PATTERN_FILL
  6
CONTINUOUS
 62
     7
 10
35.949999999999989
 20
32.879663015523732
 30
0.0
 40
1.25
  0
CIRCLE
  5
282
  8
PATTERN_FILL
  6
CONTINUOUS
 62
     7
 10
39.75
 20
32.879663015523732
 30
0.0
 40
1.25
  0
ARC
  5
283
  8
PATTERN_FILL
  6
CONTINUOUS
 62
     7
 10
43.549999999999983
 20
32.879663015523732
 30
0.0
 40
1.2500000000000071
 50
70.503265408317645
 51
279.5064136131432
  0
CIRCLE
  5
284
  8
PATTERN_FILL
  6
CONTINUOUS
 62
     7
 10
-32.449999999999967
 20
29.079663015523732
 30
0.0
 40
1.25
  0
CIRCLE
  5
285
  8
PATTERN_FILL
  6
CONTINUOUS
 62
     7
 10
-28.649999999999991
 20
29.079663015523732
 30
0.0
 40
1.250000000000014
  0
CIRCLE
  5
286
  8
PATTERN_FILL
  6
CONTINUOUS
 62
     7
 10
-24.84999999999998
 20
29.079663015523732
 30
0.0
 40
1.25
  0
CIRCLE
  5
287
  8
PATTERN_FILL
  6
CONTINUOUS
 62
     7
 10
-21.049999999999979
 20
29.079663015523732
 30
0.0
 40
1.25
  0
CIRCLE
  5
288
  8
PATTERN_FILL
  6
CONTINUOUS
 62
     7
 10
-17.249999999999979
 20
29.079663015523732
 30
0.0
 40
1.25
  0
CIRCLE
  5
289
  8
PATTERN_FILL
  6
CONTINUOUS
 62
     7
 10
-13.449999999999971
 20
29.079663015523732
 30
0.0
 40
1.25
  0
CIRCLE
  5
28A
  8
PATTERN_FILL
  6
CONTINUOUS
 62
     7
 10
-9.6499999999999755
 20
29.079663015523732
 30
0.0
 40
1.25
  0
CIRCLE
  5
28B
  8
PATTERN_FILL
  6
CONTINUOUS
 62
     7
 10
-5.8499999999999801
 20
29.079663015523732
 30
0.0
 40
1.25
  0
CIRCLE
  5
28C
  8
PATTERN_FILL
  6
CONTINUOUS
 62
     7
 10
-2.0499999999999821
 20
29.079663015523732
 30
0.0
 40
1.25
  0
CIRCLE
  5
28D
  8
PATTERN_FILL
  6
CONTINUOUS
 62
     7
 10
1.750000000000014
 20
29.079663015523732
 30
0.0
 40
1.25
  0
CIRCLE
  5
28E
  8
PATTERN_FILL
  6
CONTINUOUS
 62
     7
 10
5.5500000000000114
 20
29.079663015523732
 30
0.0
 40
1.25
  0
CIRCLE
  5
28F
  8
PATTERN_FILL
  6
CONTINUOUS
 62
     7
 10
9.3500000000000085
 20
29.079663015523732
 30
0.0
 40
1.25
  0
CIRCLE
  5
290
  8
PATTERN_FILL
  6
CONTINUOUS
 62
     7
 10
13.15
 20
29.079663015523732
 30
0.0
 40
1.25
  0
CIRCLE
  5
291
  8
PATTERN_FILL
  6
CONTINUOUS
 62
     7
 10
16.949999999999999
 20
29.079663015523732
 30
0.0
 40
1.25
  0
CIRCLE
  5
292
  8
PATTERN_FILL
  6
CONTINUOUS
 62
     7
 10
20.75
 20
29.079663015523732
 30
0.0
 40
1.25
  0
CIRCLE
  5
293
  8
PATTERN_FILL
  6
CONTINUOUS
 62
     7
 10
24.550000000000001
 20
29.079663015523732
 30
0.0
 40
1.25
  0
CIRCLE
  5
294
  8
PATTERN_FILL
  6
CONTINUOUS
 62
     7
 10
28.349999999999991
 20
29.079663015523732
 30
0.0
 40
1.25
  0
CIRCLE
  5
295
  8
PATTERN_FILL
  6
CONTINUOUS
 62
     7
 10
32.149999999999991
 20
29.079663015523732
 30
0.0
 40
1.25
  0
CIRCLE
  5
296
  8
PATTERN_FILL
  6
CONTINUOUS
 62
     7
 10
35.949999999999989
 20
29.079663015523732
 30
0.0
 40
1.25
  0
CIRCLE
  5
297
  8
PATTERN_FILL
  6
CONTINUOUS
 62
     7
 10
39.75
 20
29.079663015523732
 30
0.0
 40
1.25
  0
ARC
  5
298
  8
PATTERN_FILL
  6
CONTINUOUS
 62
     7
 10
43.549999999999983
 20
29.079663015523732
 30
0.0
 40
1.250000000000002
 50
85.823684645518256
 51
264.18599437594219
  0
CIRCLE
  5
299
  8
PATTERN_FILL
  6
CONTINUOUS
 62
     7
 10
-32.449999999999967
 20
25.279663015523731
 30
0.0
 40
1.25
  0
CIRCLE
  5
29A
  8
PATTERN_FILL
  6
CONTINUOUS
 62
     7
 10
-28.649999999999991
 20
25.279663015523731
 30
0.0
 40
1.250000000000014
  0
CIRCLE
  5
29B
  8
PATTERN_FILL
  6
CONTINUOUS
 62
     7
 10
-24.84999999999998
 20
25.279663015523731
 30
0.0
 40
1.25
  0
CIRCLE
  5
29C
  8
PATTERN_FILL
  6
CONTINUOUS
 62
     7
 10
-21.049999999999979
 20
25.279663015523731
 30
0.0
 40
1.25
  0
CIRCLE
  5
29D
  8
PATTERN_FILL
  6
CONTINUOUS
 62
     7
 10
-17.249999999999979
 20
25.279663015523731
 30
0.0
 40
1.25
  0
CIRCLE
  5
29E
  8
PATTERN_FILL
  6
CONTINUOUS
 62
     7
 10
-13.449999999999971
 20
25.279663015523731
 30
0.0
 40
1.25
  0
CIRCLE
  5
29F
  8
PATTERN_FILL
  6
CONTINUOUS
 62
     7
 10
-9.6499999999999755
 20
25.279663015523731
 30
0.0
 40
1.25
  0
CIRCLE
  5
2A0
  8
PATTERN_FILL
  6
CONTINUOUS
 62
     7
 10
-5.8499999999999801
 20
25.279663015523731
 30
0.0
 40
1.25
  0
CIRCLE
  5
2A1
  8
PATTERN_FILL
  6
CONTINUOUS
 62
     7
 10
-2.0499999999999821
 20
25.279663015523731
 30
0.0
 40
1.25
  0
CIRCLE
  5
2A2
  8
PATTERN_FILL
  6
CONTINUOUS
 62
     7
 10
1.750000000000014
 20
25.279663015523731
 30
0.0
 40
1.25
  0
CIRCLE
  5
2A3
  8
PATTERN_FILL
  6
CONTINUOUS
 62
     7
 10
5.5500000000000114
 20
25.279663015523731
 30
0.0
 40
1.25
  0
CIRCLE
  5
2A4
  8
PATTERN_FILL
  6
CONTINUOUS
 62
     7
 10
9.3500000000000085
 20
25.279663015523731
 30
0.0
 40
1.25
  0
CIRCLE
  5
2A5
  8
PATTERN_FILL
  6
CONTINUOUS
 62
     7
 10
13.15
 20
25.279663015523731
 30
0.0
 40
1.25
  0
CIRCLE
  5
2A6
  8
PATTERN_FILL
  6
CONTINUOUS
 62
     7
 10
16.949999999999999
 20
25.279663015523731
 30
0.0
 40
1.25
  0
CIRCLE
  5
2A7
  8
PATTERN_FILL
  6
CONTINUOUS
 62
     7
 10
20.75
 20
25.279663015523731
 30
0.0
 40
1.25
  0
CIRCLE
  5
2A8
  8
PATTERN_FILL
  6
CONTINUOUS
 62
     7
 10
24.550000000000001
 20
25.279663015523731
 30
0.0
 40
1.25
  0
CIRCLE
  5
2A9
  8
PATTERN_FILL
  6
CONTINUOUS
 62
     7
 10
28.349999999999991
 20
25.279663015523731
 30
0.0
 40
1.25
  0
CIRCLE
  5
2AA
  8
PATTERN_FILL
  6
CONTINUOUS
 62
     7
 10
32.149999999999991
 20
25.279663015523731
 30
0.0
 40
1.25
  0
CIRCLE
  5
2AB
  8
PATTERN_FILL
  6
CONTINUOUS
 62
     7
 10
35.949999999999989
 20
25.279663015523731
 30
0.0
 40
1.25
  0
CIRCLE
  5
2AC
  8
PATTERN_FILL
  6
CONTINUOUS
 62
     7
 10
39.75
 20
25.279663015523731
 30
0.0
 40
1.25
  0
ARC
  5
2AD
  8
PATTERN_FILL
  6
CONTINUOUS
 62
     7
 10
43.549999999999983
 20
25.279663015523731
 30
0.0
 40
1.2500000000000051
 50
101.2046969378338
 51
247.2498444979384
  0
ARC
  5
2AE
  8
PATTERN_FILL
  6
CONTINUOUS
 62
     7
 10
-32.449999999999967
 20
21.479663015523709
 30
0.0
 40
1.249999999999982
 50
234.54809903111439
 51
159.24070942722551
  0
CIRCLE
  5
2AF
  8
PATTERN_FILL
  6
CONTINUOUS
 62
     7
 10
-28.649999999999991
 20
21.479663015523741
 30
0.0
 40
1.250000000000014
  0
CIRCLE
  5
2B0
  8
PATTERN_FILL
  6
CONTINUOUS
 62
     7
 10
-24.84999999999998
 20
21.479663015523741
 30
0.0
 40
1.25
  0
CIRCLE
  5
2B1
  8
PATTERN_FILL
  6
CONTINUOUS
 62
     7
 10
-21.049999999999979
 20
21.479663015523741
 30
0.0
 40
1.25
  0
CIRCLE
  5
2B2
  8
PATTERN_FILL
  6
CONTINUOUS
 62
     7
 10
-17.249999999999979
 20
21.479663015523741
 30
0.0
 40
1.25
  0
CIRCLE
  5
2B3
  8
PATTERN_FILL
  6
CONTINUOUS
 62
     7
 10
-13.449999999999971
 20
21.479663015523741
 30
0.0
 40
1.25
  0
CIRCLE
  5
2B4
  8
PATTERN_FILL
  6
CONTINUOUS
 62
     7
 10
-9.6499999999999755
 20
21.479663015523741
 30
0.0
 40
1.25
  0
ARC
  5
2B5
  8
PATTERN_FILL
  6
CONTINUOUS
 62
     7
 10
-5.8499999999999801
 20
21.479663015523741
 30
0.0
 40
1.249999999999998
 50
3.0994805604971778
 51
287.7175749475295
  0
ARC
  5
2B6
  8
PATTERN_FILL
  6
CONTINUOUS
 62
     7
 10
-2.0499999999999821
 20
21.479663015523741
 30
0.0
 40
1.249999999999994
 50
24.599293935841391
 51
155.40070606415861
  0
ARC
  5
2B7
  8
PATTERN_FILL
  6
CONTINUOUS
 62
     7
 10
1.750000000000014
 20
21.479663015523741
 30
0.0
 40
1.249999999999994
 50
24.599293935841391
 51
155.40070606415799
  0
ARC
  5
2B8
  8
PATTERN_FILL
  6
CONTINUOUS
 62
     7
 10
5.5500000000000114
 20
21.479663015523741
 30
0.0
 40
1.249999999999994
 50
24.599293935841391
 51
155.40070606415861
  0
ARC
  5
2B9
  8
PATTERN_FILL
  6
CONTINUOUS
 62
     7
 10
9.3500000000000085
 20
21.479663015523741
 30
0.0
 40
1.249999999999994
 50
24.599293935841391
 51
155.40070606415949
  0
ARC
  5
2BA
  8
PATTERN_FILL
  6
CONTINUOUS
 62
     7
 10
13.15000000000002
 20
21.47966301552372
 30
0.0
 40
1.24999999999998
 50
326.7835918511426
 51
155.4007060641583
  0
CIRCLE
  5
2BB
  8
PATTERN_FILL
  6
CONTINUOUS
 62
     7
 10
16.949999999999999
 20
21.479663015523741
 30
0.0
 40
1.25
  0
CIRCLE
  5
2BC
  8
PATTERN_FILL
  6
CONTINUOUS
 62
     7
 10
20.75
 20
21.479663015523741
 30
0.0
 40
1.25
  0
CIRCLE
  5
2BD
  8
PATTERN_FILL
  6
CONTINUOUS
 62
     7
 10
24.550000000000001
 20
21.479663015523741
 30
0.0
 40
1.25
  0
CIRCLE
  5
2BE
  8
PATTERN_FILL
  6
CONTINUOUS
 62
     7
 10
28.349999999999991
 20
21.479663015523741
 30
0.0
 40
1.25
  0
CIRCLE
  5
2BF
  8
PATTERN_FILL
  6
CONTINUOUS
 62
     7
 10
32.149999999999991
 20
21.479663015523741
 30
0.0
 40
1.25
  0
CIRCLE
  5
2C0
  8
PATTERN_FILL
  6
CONTINUOUS
 62
     7
 10
35.949999999999989
 20
21.479663015523741
 30
0.0
 40
1.25
  0
CIRCLE
  5
2C1
  8
PATTERN_FILL
  6
CONTINUOUS
 62
     7
 10
39.75
 20
21.479663015523741
 30
0.0
 40
1.25
  0
ARC
  5
2C2
  8
PATTERN_FILL
  6
CONTINUOUS
 62
     7
 10
43.549999999999983
 20
21.479663015523741
 30
0.0
 40
1.2499999999999949
 50
129.9921582909096
 51
199.5474132147155
  0
ARC
  5
2C3
  8
PATTERN_FILL
  6
CONTINUOUS
 62
     7
 10
-32.449999999999953
 20
17.67966301552373
 30
0.0
 40
1.249999999999974
 50
318.7453627339313
 51
95.550690139305445
  0
CIRCLE
  5
2C4
  8
PATTERN_FILL
  6
CONTINUOUS
 62
     7
 10
-28.649999999999991
 20
17.67966301552374
 30
0.0
 40
1.250000000000014
  0
CIRCLE
  5
2C5
  8
PATTERN_FILL
  6
CONTINUOUS
 62
     7
 10
-24.84999999999998
 20
17.67966301552374
 30
0.0
 40
1.25
  0
CIRCLE
  5
2C6
  8
PATTERN_FILL
  6
CONTINUOUS
 62
     7
 10
-21.049999999999979
 20
17.67966301552374
 30
0.0
 40
1.25
  0
CIRCLE
  5
2C7
  8
PATTERN_FILL
  6
CONTINUOUS
 62
     7
 10
-17.249999999999979
 20
17.67966301552374
 30
0.0
 40
1.25
  0
CIRCLE
  5
2C8
  8
PATTERN_FILL
  6
CONTINUOUS
 62
     7
 10
-13.449999999999971
 20
17.67966301552374
 30
0.0
 40
1.25
  0
CIRCLE
  5
2C9
  8
PATTERN_FILL
  6
CONTINUOUS
 62
     7
 10
-9.6499999999999755
 20
17.67966301552374
 30
0.0
 40
1.25
  0
ARC
  5
2CA
  8
PATTERN_FILL
  6
CONTINUOUS
 62
     7
 10
16.950000000000021
 20
17.679663015523762
 30
0.0
 40
1.2500000000000131
 50
258.54012969559773
 51
161.45987030440219
  0
CIRCLE
  5
2CB
  8
PATTERN_FILL
  6
CONTINUOUS
 62
     7
 10
20.75
 20
17.67966301552374
 30
0.0
 40
1.25
  0
CIRCLE
  5
2CC
  8
PATTERN_FILL
  6
CONTINUOUS
 62
     7
 10
24.550000000000001
 20
17.67966301552374
 30
0.0
 40
1.25
  0
CIRCLE
  5
2CD
  8
PATTERN_FILL
  6
CONTINUOUS
 62
     7
 10
28.349999999999991
 20
17.67966301552374
 30
0.0
 40
1.25
  0
CIRCLE
  5
2CE
  8
PATTERN_FILL
  6
CONTINUOUS
 62
     7
 10
32.149999999999991
 20
17.67966301552374
 30
0.0
 40
1.25
  0
CIRCLE
  5
2CF
  8
PATTERN_FILL
  6
CONTINUOUS
 62
     7
 10
35.949999999999989
 20
17.67966301552374
 30
0.0
 40
1.25
  0
CIRCLE
  5
2D0
  8
PATTERN_FILL
  6
CONTINUOUS
 62
     7
 10
39.75
 20
17.67966301552374
 30
0.0
 40
1.25
  0
ARC
  5
2D1
  8
PATTERN_FILL
  6
CONTINUOUS
 62
     7
 10
-28.64999999999997
 20
13.879663015523761
 30
0.0
 40
1.2500000000000231
 50
288.59734224091989
 51
156.1734862071394
  0
CIRCLE
  5
2D2
  8
PATTERN_FILL
  6
CONTINUOUS
 62
     7
 10
-24.84999999999998
 20
13.87966301552375
 30
0.0
 40
1.25
  0
CIRCLE
  5
2D3
  8
PATTERN_FILL
  6
CONTINUOUS
 62
     7
 10
-21.049999999999979
 20
13.87966301552375
 30
0.0
 40
1.25
  0
CIRCLE
  5
2D4
  8
PATTERN_FILL
  6
CONTINUOUS
 62
     7
 10
-17.249999999999979
 20
13.87966301552375
 30
0.0
 40
1.25
  0
CIRCLE
  5
2D5
  8
PATTERN_FILL
  6
CONTINUOUS
 62
     7
 10
-13.449999999999971
 20
13.87966301552375
 30
0.0
 40
1.25
  0
ARC
  5
2D6
  8
PATTERN_FILL
  6
CONTINUOUS
 62
     7
 10
-9.6499999999999755
 20
13.87966301552375
 30
0.0
 40
1.2499999999999969
 50
38.019166505522861
 51
262.90326897535959
  0
CIRCLE
  5
2D7
  8
PATTERN_FILL
  6
CONTINUOUS
 62
     7
 10
20.75
 20
13.87966301552375
 30
0.0
 40
1.25
  0
CIRCLE
  5
2D8
  8
PATTERN_FILL
  6
CONTINUOUS
 62
     7
 10
24.550000000000001
 20
13.87966301552375
 30
0.0
 40
1.25
  0
CIRCLE
  5
2D9
  8
PATTERN_FILL
  6
CONTINUOUS
 62
     7
 10
28.349999999999991
 20
13.87966301552375
 30
0.0
 40
1.25
  0
CIRCLE
  5
2DA
  8
PATTERN_FILL
  6
CONTINUOUS
 62
     7
 10
32.149999999999991
 20
13.87966301552375
 30
0.0
 40
1.25
  0
CIRCLE
  5
2DB
  8
PATTERN_FILL
  6
CONTINUOUS
 62
     7
 10
35.949999999999989
 20
13.87966301552375
 30
0.0
 40
1.25
  0
ARC
  5
2DC
  8
PATTERN_FILL
  6
CONTINUOUS
 62
     7
 10
-24.849999999999969
 20
10.079663015523741
 30
0.0
 40
1.2499999999999909
 50
327.6609082814652
 51
148.32472295022561
  0
CIRCLE
  5
2DD
  8
PATTERN_FILL
  6
CONTINUOUS
 62
     7
 10
-21.049999999999979
 20
10.079663015523741
 30
0.0
 40
1.25
  0
CIRCLE
  5
2DE
  8
PATTERN_FILL
  6
CONTINUOUS
 62
     7
 10
-17.249999999999979
 20
10.079663015523741
 30
0.0
 40
1.25
  0
CIRCLE
  5
2DF
  8
PATTERN_FILL
  6
CONTINUOUS
 62
     7
 10
-13.449999999999971
 20
10.079663015523741
 30
0.0
 40
1.25
  0
ARC
  5
2E0
  8
PATTERN_FILL
  6
CONTINUOUS
 62
     7
 10
20.749999999999979
 20
10.079663015523741
 30
0.0
 40
1.249999999999996
 50
285.23752196347368
 51
134.76247803652649
  0
CIRCLE
  5
2E1
  8
PATTERN_FILL
  6
CONTINUOUS
 62
     7
 10
24.550000000000001
 20
10.079663015523741
 30
0.0
 40
1.25
  0
CIRCLE
  5
2E2
  8
PATTERN_FILL
  6
CONTINUOUS
 62
     7
 10
28.349999999999991
 20
10.079663015523741
 30
0.0
 40
1.25
  0
ARC
  5
2E3
  8
PATTERN_FILL
  6
CONTINUOUS
 62
     7
 10
32.149999999999991
 20
10.079663015523741
 30
0.0
 40
1.2500000000000031
 50
343.38779413452039
 51
251.9727780644304
  0
ARC
  5
2E4
  8
PATTERN_FILL
  6
CONTINUOUS
 62
     7
 10
-16.756191430112729
 20
-53.250247223672432
 30
0.0
 40
1.000000000000006
 50
230.17370204279129
 51
329.19886912784528
  0
ARC
  5
2E5
  8
PATTERN_FILL
  6
CONTINUOUS
 62
     7
 10
-12.956191430112741
 20
-53.250247223672453
 30
0.0
 40
0.9999999999999957
 50
191.75735319139821
 51
4.3845865270134814
  0
ARC
  5
2E6
  8
PATTERN_FILL
  6
CONTINUOUS
 62
     7
 10
-9.1561914301127398
 20
-53.250247223672432
 30
0.0
 40
0.9999999999999994
 50
161.8354920112244
 51
31.04978406369429
  0
ARC
  5
2E7
  8
PATTERN_FILL
  6
CONTINUOUS
 62
     7
 10
-5.3561914301127587
 20
-53.250247223672389
 30
0.0
 40
0.9999999999999703
 50
132.5734839470191
 51
57.034096603428488
  0
CIRCLE
  5
2E8
  8
PATTERN_FILL
  6
CONTINUOUS
 62
     7
 10
-1.5561914301127471
 20
-53.250247223672432
 30
0.0
 40
1.0
  0
CIRCLE
  5
2E9
  8
PATTERN_FILL
  6
CONTINUOUS
 62
     7
 10
2.243808569887249
 20
-53.250247223672432
 30
0.0
 40
1.0
  0
CIRCLE
  5
2EA
  8
PATTERN_FILL
  6
CONTINUOUS
 62
     7
 10
6.043808569887247
 20
-53.250247223672432
 30
0.0
 40
1.0
  0
CIRCLE
  5
2EB
  8
PATTERN_FILL
  6
CONTINUOUS
 62
     7
 10
9.8438085698872442
 20
-53.250247223672432
 30
0.0
 40
1.0
  0
ARC
  5
2EC
  8
PATTERN_FILL
  6
CONTINUOUS
 62
     7
 10
13.643808569887209
 20
-53.250247223672488
 30
0.0
 40
1.0000000000000431
 50
117.446195547549
 51
53.562612391966937
  0
ARC
  5
2ED
  8
PATTERN_FILL
  6
CONTINUOUS
 62
     7
 10
17.443808569887238
 20
-53.250247223672432
 30
0.0
 40
1.000000000000002
 50
144.213592079987
 51
23.514151226413158
  0
ARC
  5
2EE
  8
PATTERN_FILL
  6
CONTINUOUS
 62
     7
 10
21.243808569887239
 20
-53.250247223672432
 30
0.0
 40
0.9999999999999966
 50
170.29419648036841
 51
354.17255281490623
  0
ARC
  5
2EF
  8
PATTERN_FILL
  6
CONTINUOUS
 62
     7
 10
25.043808569887229
 20
-53.250247223672432
 30
0.0
 40
0.9999999999999952
 50
202.74201349825719
 51
318.48885399251981
  0
ARC
  5
2F0
  8
PATTERN_FILL
  6
CONTINUOUS
 62
     7
 10
-28.156191430112749
 20
-57.050247223672422
 30
0.0
 40
1.0000000000000011
 50
154.76982707688799
 51
54.913358525797477
  0
CIRCLE
  5
2F1
  8
PATTERN_FILL
  6
CONTINUOUS
 62
     7
 10
-24.356191430112752
 20
-57.050247223672422
 30
0.0
 40
1.0
  0
CIRCLE
  5
2F2
  8
PATTERN_FILL
  6
CONTINUOUS
 62
     7
 10
-20.556191430112751
 20
-57.050247223672422
 30
0.0
 40
1.0
  0
CIRCLE
  5
2F3
  8
PATTERN_FILL
  6
CONTINUOUS
 62
     7
 10
-16.756191430112729
 20
-57.050247223672422
 30
0.0
 40
1.0
  0
CIRCLE
  5
2F4
  8
PATTERN_FILL
  6
CONTINUOUS
 62
     7
 10
-12.956191430112741
 20
-57.050247223672422
 30
0.0
 40
1.0
  0
CIRCLE
  5
2F5
  8
PATTERN_FILL
  6
CONTINUOUS
 62
     7
 10
-9.1561914301127398
 20
-57.050247223672422
 30
0.0
 40
1.0
  0
CIRCLE
  5
2F6
  8
PATTERN_FILL
  6
CONTINUOUS
 62
     7
 10
-5.3561914301127436
 20
-57.050247223672422
 30
0.0
 40
1.0
  0
CIRCLE
  5
2F7
  8
PATTERN_FILL
  6
CONTINUOUS
 62
     7
 10
-1.5561914301127471
 20
-57.050247223672422
 30
0.0
 40
1.0
  0
CIRCLE
  5
2F8
  8
PATTERN_FILL
  6
CONTINUOUS
 62
     7
 10
2.243808569887249
 20
-57.050247223672422
 30
0.0
 40
1.0
  0
CIRCLE
  5
2F9
  8
PATTERN_FILL
  6
CONTINUOUS
 62
     7
 10
6.043808569887247
 20
-57.050247223672422
 30
0.0
 40
1.0
  0
CIRCLE
  5
2FA
  8
PATTERN_FILL
  6
CONTINUOUS
 62
     7
 10
9.8438085698872442
 20
-57.050247223672422
 30
0.0
 40
1.0
  0
CIRCLE
  5
2FB
  8
PATTERN_FILL
  6
CONTINUOUS
 62
     7
 10
13.64380856988724
 20
-57.050247223672422
 30
0.0
 40
1.0
  0
CIRCLE
  5
2FC
  8
PATTERN_FILL
  6
CONTINUOUS
 62
     7
 10
17.443808569887238
 20
-57.050247223672422
 30
0.0
 40
1.0
  0
CIRCLE
  5
2FD
  8
PATTERN_FILL
  6
CONTINUOUS
 62
     7
 10
21.243808569887239
 20
-57.050247223672422
 30
0.0
 40
1.0
  0
CIRCLE
  5
2FE
  8
PATTERN_FILL
  6
CONTINUOUS
 62
     7
 10
25.043808569887229
 20
-57.050247223672422
 30
0.0
 40
1.0
  0
CIRCLE
  5
2FF
  8
PATTERN_FILL
  6
CONTINUOUS
 62
     7
 10
28.843808569887241
 20
-57.050247223672422
 30
0.0
 40
1.0
  0
CIRCLE
  5
300
  8
PATTERN_FILL
  6
CONTINUOUS
 62
     7
 10
32.643808569887241
 20
-57.050247223672422
 30
0.0
 40
1.0
  0
ARC
  5
301
  8
PATTERN_FILL
  6
CONTINUOUS
 62
     7
 10
36.443808569887203
 20
-57.050247223672507
 30
0.0
 40
1.000000000000079
 50
109.8251746613946
 51
41.089460001599157
  0
ARC
  5
302
  8
PATTERN_FILL
  6
CONTINUOUS
 62
     7
 10
40.243808569887221
 20
-57.050247223672422
 30
0.0
 40
0.9999999999999987
 50
193.0216054006649
 51
284.15950554978048
  0
ARC
  5
303
  8
PATTERN_FILL
  6
CONTINUOUS
 62
     7
 10
-35.756191430112708
 20
-60.850247223672419
 30
0.0
 40
1.0000000000000171
 50
234.83321017434631
 51
25.283891406483239
  0
CIRCLE
  5
304
  8
PATTERN_FILL
  6
CONTINUOUS
 62
     7
 10
-31.956191430112749
 20
-60.850247223672419
 30
0.0
 40
1.0
  0
CIRCLE
  5
305
  8
PATTERN_FILL
  6
CONTINUOUS
 62
     7
 10
-28.156191430112749
 20
-60.850247223672419
 30
0.0
 40
1.0
  0
CIRCLE
  5
306
  8
PATTERN_FILL
  6
CONTINUOUS
 62
     7
 10
-24.356191430112752
 20
-60.850247223672419
 30
0.0
 40
1.0
  0
CIRCLE
  5
307
  8
PATTERN_FILL
  6
CONTINUOUS
 62
     7
 10
-20.556191430112751
 20
-60.850247223672419
 30
0.0
 40
1.0
  0
CIRCLE
  5
308
  8
PATTERN_FILL
  6
CONTINUOUS
 62
     7
 10
-16.756191430112729
 20
-60.850247223672419
 30
0.0
 40
1.0
  0
CIRCLE
  5
309
  8
PATTERN_FILL
  6
CONTINUOUS
 62
     7
 10
-12.956191430112741
 20
-60.850247223672419
 30
0.0
 40
1.0
  0
CIRCLE
  5
30A
  8
PATTERN_FILL
  6
CONTINUOUS
 62
     7
 10
-9.1561914301127398
 20
-60.850247223672419
 30
0.0
 40
1.0
  0
CIRCLE
  5
30B
  8
PATTERN_FILL
  6
CONTINUOUS
 62
     7
 10
-5.3561914301127436
 20
-60.850247223672419
 30
0.0
 40
1.0
  0
CIRCLE
  5
30C
  8
PATTERN_FILL
  6
CONTINUOUS
 62
     7
 10
-1.5561914301127471
 20
-60.850247223672419
 30
0.0
 40
1.0
  0
CIRCLE
  5
30D
  8
PATTERN_FILL
  6
CONTINUOUS
 62
     7
 10
2.243808569887249
 20
-60.850247223672419
 30
0.0
 40
1.0
  0
CIRCLE
  5
30E
  8
PATTERN_FILL
  6
CONTINUOUS
 62
     7
 10
6.043808569887247
 20
-60.850247223672419
 30
0.0
 40
1.0
  0
CIRCLE
  5
30F
  8
PATTERN_FILL
  6
CONTINUOUS
 62
     7
 10
9.8438085698872442
 20
-60.850247223672419
 30
0.0
 40
1.0
  0
CIRCLE
  5
310
  8
PATTERN_FILL
  6
CONTINUOUS
 62
     7
 10
13.64380856988724
 20
-60.850247223672419
 30
0.0
 40
1.0
  0
CIRCLE
  5
311
  8
PATTERN_FILL
  6
CONTINUOUS
 62
     7
 10
17.443808569887238
 20
-60.850247223672419
 30
0.0
 40
1.0
  0
CIRCLE
  5
312
  8
PATTERN_FILL
  6
CONTINUOUS
 62
     7
 10
21.243808569887239
 20
-60.850247223672419
 30
0.0
 40
1.0
  0
CIRCLE
  5
313
  8
PATTERN_FILL
  6
CONTINUOUS
 62
     7
 10
25.043808569887229
 20
-60.850247223672419
 30
0.0
 40
1.0
  0
CIRCLE
  5
314
  8
PATTERN_FILL
  6
CONTINUOUS
 62
     7
 10
28.843808569887241
 20
-60.850247223672419
 30
0.0
 40
1.0
  0
CIRCLE
  5
315
  8
PATTERN_FILL
  6
CONTINUOUS
 62
     7
 10
32.643808569887241
 20
-60.850247223672419
 30
0.0
 40
1.0
  0
CIRCLE
  5
316
  8
PATTERN_FILL
  6
CONTINUOUS
 62
     7
 10
36.443808569887217
 20
-60.850247223672419
 30
0.0
 40
1.0
  0
CIRCLE
  5
317
  8
PATTERN_FILL
  6
CONTINUOUS
 62
     7
 10
40.243808569887221
 20
-60.850247223672419
 30
0.0
 40
1.0
  0
ARC
  5
318
  8
PATTERN_FILL
  6
CONTINUOUS
 62
     7
 10
44.043808569887219
 20
-60.850247223672419
 30
0.0
 40
0.9999999999999987
 50
129.26400058517001
 51
332.24931402768391
  0
ARC
  5
319
  8
PATTERN_FILL
  6
CONTINUOUS
 62
     7
 10
-39.55619143011274
 20
-64.650247223672423
 30
0.0
 40
0.999999999999968
 50
237.5033853535254
 51
38.523406863664889
  0
CIRCLE
  5
31A
  8
PATTERN_FILL
  6
CONTINUOUS
 62
     7
 10
-35.756191430112743
 20
-64.650247223672409
 30
0.0
 40
1.0
  0
CIRCLE
  5
31B
  8
PATTERN_FILL
  6
CONTINUOUS
 62
     7
 10
-31.956191430112749
 20
-64.650247223672409
 30
0.0
 40
1.0
  0
CIRCLE
  5
31C
  8
PATTERN_FILL
  6
CONTINUOUS
 62
     7
 10
-28.156191430112749
 20
-64.650247223672409
 30
0.0
 40
1.0
  0
CIRCLE
  5
31D
  8
PATTERN_FILL
  6
CONTINUOUS
 62
     7
 10
-24.356191430112752
 20
-64.650247223672409
 30
0.0
 40
1.0
  0
CIRCLE
  5
31E
  8
PATTERN_FILL
  6
CONTINUOUS
 62
     7
 10
-20.556191430112751
 20
-64.650247223672409
 30
0.0
 40
1.0
  0
CIRCLE
  5
31F
  8
PATTERN_FILL
  6
CONTINUOUS
 62
     7
 10
-16.756191430112729
 20
-64.650247223672409
 30
0.0
 40
1.0
  0
CIRCLE
  5
320
  8
PATTERN_FILL
  6
CONTINUOUS
 62
     7
 10
-12.956191430112741
 20
-64.650247223672409
 30
0.0
 40
1.0
  0
CIRCLE
  5
321
  8
PATTERN_FILL
  6
CONTINUOUS
 62
     7
 10
-9.1561914301127398
 20
-64.650247223672409
 30
0.0
 40
1.0
  0
CIRCLE
  5
322
  8
PATTERN_FILL
  6
CONTINUOUS
 62
     7
 10
-5.3561914301127436
 20
-64.650247223672409
 30
0.0
 40
1.0
  0
CIRCLE
  5
323
  8
PATTERN_FILL
  6
CONTINUOUS
 62
     7
 10
-1.5561914301127471
 20
-64.650247223672409
 30
0.0
 40
1.0
  0
CIRCLE
  5
324
  8
PATTERN_FILL
  6
CONTINUOUS
 62
     7
 10
2.243808569887249
 20
-64.650247223672409
 30
0.0
 40
1.0
  0
CIRCLE
  5
325
  8
PATTERN_FILL
  6
CONTINUOUS
 62
     7
 10
6.043808569887247
 20
-64.650247223672409
 30
0.0
 40
1.0
  0
CIRCLE
  5
326
  8
PATTERN_FILL
  6
CONTINUOUS
 62
     7
 10
9.8438085698872442
 20
-64.650247223672409
 30
0.0
 40
1.0
  0
CIRCLE
  5
327
  8
PATTERN_FILL
  6
CONTINUOUS
 62
     7
 10
13.64380856988724
 20
-64.650247223672409
 30
0.0
 40
1.0
  0
CIRCLE
  5
328
  8
PATTERN_FILL
  6
CONTINUOUS
 62
     7
 10
17.443808569887238
 20
-64.650247223672409
 30
0.0
 40
1.0
  0
CIRCLE
  5
329
  8
PATTERN_FILL
  6
CONTINUOUS
 62
     7
 10
21.243808569887239
 20
-64.650247223672409
 30
0.0
 40
1.0
  0
CIRCLE
  5
32A
  8
PATTERN_FILL
  6
CONTINUOUS
 62
     7
 10
25.043808569887229
 20
-64.650247223672409
 30
0.0
 40
1.0
  0
CIRCLE
  5
32B
  8
PATTERN_FILL
  6
CONTINUOUS
 62
     7
 10
28.843808569887241
 20
-64.650247223672409
 30
0.0
 40
1.0
  0
CIRCLE
  5
32C
  8
PATTERN_FILL
  6
CONTINUOUS
 62
     7
 10
32.643808569887241
 20
-64.650247223672409
 30
0.0
 40
1.0
  0
CIRCLE
  5
32D
  8
PATTERN_FILL
  6
CONTINUOUS
 62
     7
 10
36.443808569887217
 20
-64.650247223672409
 30
0.0
 40
1.0
  0
CIRCLE
  5
32E
  8
PATTERN_FILL
  6
CONTINUOUS
 62
     7
 10
40.243808569887221
 20
-64.650247223672409
 30
0.0
 40
1.0
  0
CIRCLE
  5
32F
  8
PATTERN_FILL
  6
CONTINUOUS
 62
     7
 10
44.043808569887219
 20
-64.650247223672409
 30
0.0
 40
1.0
  0
ARC
  5
330
  8
PATTERN_FILL
  6
CONTINUOUS
 62
     7
 10
47.843808569887209
 20
-64.650247223672409
 30
0.0
 40
1.0000000000000091
 50
111.4162491690082
 51
333.98802049723952
  0
ARC
  5
331
  8
PATTERN_FILL
  6
CONTINUOUS
 62
     7
 10
-43.356191430112723
 20
-68.45024722367242
 30
0.0
 40
1.000000000000002
 50
289.66471969575042
 51
2.0439808400122961
  0
CIRCLE
  5
332
  8
PATTERN_FILL
  6
CONTINUOUS
 62
     7
 10
-39.55619143011274
 20
-68.45024722367242
 30
0.0
 40
1.0
  0
CIRCLE
  5
333
  8
PATTERN_FILL
  6
CONTINUOUS
 62
     7
 10
-35.756191430112743
 20
-68.45024722367242
 30
0.0
 40
1.0
  0
CIRCLE
  5
334
  8
PATTERN_FILL
  6
CONTINUOUS
 62
     7
 10
-31.956191430112749
 20
-68.45024722367242
 30
0.0
 40
1.0
  0
CIRCLE
  5
335
  8
PATTERN_FILL
  6
CONTINUOUS
 62
     7
 10
-28.156191430112749
 20
-68.45024722367242
 30
0.0
 40
1.0
  0
CIRCLE
  5
336
  8
PATTERN_FILL
  6
CONTINUOUS
 62
     7
 10
-24.356191430112752
 20
-68.45024722367242
 30
0.0
 40
1.0
  0
CIRCLE
  5
337
  8
PATTERN_FILL
  6
CONTINUOUS
 62
     7
 10
-20.556191430112751
 20
-68.45024722367242
 30
0.0
 40
1.0
  0
CIRCLE
  5
338
  8
PATTERN_FILL
  6
CONTINUOUS
 62
     7
 10
-16.756191430112729
 20
-68.45024722367242
 30
0.0
 40
1.0
  0
CIRCLE
  5
339
  8
PATTERN_FILL
  6
CONTINUOUS
 62
     7
 10
-12.956191430112741
 20
-68.45024722367242
 30
0.0
 40
1.0
  0
CIRCLE
  5
33A
  8
PATTERN_FILL
  6
CONTINUOUS
 62
     7
 10
-9.1561914301127398
 20
-68.45024722367242
 30
0.0
 40
1.0
  0
CIRCLE
  5
33B
  8
PATTERN_FILL
  6
CONTINUOUS
 62
     7
 10
-5.3561914301127436
 20
-68.45024722367242
 30
0.0
 40
1.0
  0
CIRCLE
  5
33C
  8
PATTERN_FILL
  6
CONTINUOUS
 62
     7
 10
-1.5561914301127471
 20
-68.45024722367242
 30
0.0
 40
1.0
  0
CIRCLE
  5
33D
  8
PATTERN_FILL
  6
CONTINUOUS
 62
     7
 10
2.243808569887249
 20
-68.45024722367242
 30
0.0
 40
1.0
  0
CIRCLE
  5
33E
  8
PATTERN_FILL
  6
CONTINUOUS
 62
     7
 10
6.043808569887247
 20
-68.45024722367242
 30
0.0
 40
1.0
  0
CIRCLE
  5
33F
  8
PATTERN_FILL
  6
CONTINUOUS
 62
     7
 10
9.8438085698872442
 20
-68.45024722367242
 30
0.0
 40
1.0
  0
CIRCLE
  5
340
  8
PATTERN_FILL
  6
CONTINUOUS
 62
     7
 10
13.64380856988724
 20
-68.45024722367242
 30
0.0
 40
1.0
  0
CIRCLE
  5
341
  8
PATTERN_FILL
  6
CONTINUOUS
 62
     7
 10
17.443808569887238
 20
-68.45024722367242
 30
0.0
 40
1.0
  0
CIRCLE
  5
342
  8
PATTERN_FILL
  6
CONTINUOUS
 62
     7
 10
21.243808569887239
 20
-68.45024722367242
 30
0.0
 40
1.0
  0
CIRCLE
  5
343
  8
PATTERN_FILL
  6
CONTINUOUS
 62
     7
 10
25.043808569887229
 20
-68.45024722367242
 30
0.0
 40
1.0
  0
CIRCLE
  5
344
  8
PATTERN_FILL
  6
CONTINUOUS
 62
     7
 10
28.843808569887241
 20
-68.45024722367242
 30
0.0
 40
1.0
  0
CIRCLE
  5
345
  8
PATTERN_FILL
  6
CONTINUOUS
 62
     7
 10
32.643808569887241
 20
-68.45024722367242
 30
0.0
 40
1.0
  0
CIRCLE
  5
346
  8
PATTERN_FILL
  6
CONTINUOUS
 62
     7
 10
36.443808569887217
 20
-68.45024722367242
 30
0.0
 40
1.0
  0
CIRCLE
  5
347
  8
PATTERN_FILL
  6
CONTINUOUS
 62
     7
 10
40.243808569887221
 20
-68.45024722367242
 30
0.0
 40
1.0
  0
CIRCLE
  5
348
  8
PATTERN_FILL
  6
CONTINUOUS
 62
     7
 10
44.043808569887219
 20
-68.45024722367242
 30
0.0
 40
1.0
  0
CIRCLE
  5
349
  8
PATTERN_FILL
  6
CONTINUOUS
 62
     7
 10
47.843808569887209
 20
-68.45024722367242
 30
0.0
 40
1.0
  0
ARC
  5
34A
  8
PATTERN_FILL
  6
CONTINUOUS
 62
     7
 10
51.643808569887213
 20
-68.45024722367242
 30
0.0
 40
1.000000000000006
 50
137.87713338626429
 51
291.59664963456532
  0
CIRCLE
  5
34B
  8
PATTERN_FILL
  6
CONTINUOUS
 62
     7
 10
-39.55619143011274
 20
-72.250247223672432
 30
0.0
 40
1.0
  0
CIRCLE
  5
34C
  8
PATTERN_FILL
  6
CONTINUOUS
 62
     7
 10
-35.756191430112743
 20
-72.250247223672432
 30
0.0
 40
1.0
  0
CIRCLE
  5
34D
  8
PATTERN_FILL
  6
CONTINUOUS
 62
     7
 10
-31.956191430112749
 20
-72.250247223672432
 30
0.0
 40
1.0
  0
CIRCLE
  5
34E
  8
PATTERN_FILL
  6
CONTINUOUS
 62
     7
 10
-28.156191430112749
 20
-72.250247223672432
 30
0.0
 40
1.0
  0
CIRCLE
  5
34F
  8
PATTERN_FILL
  6
CONTINUOUS
 62
     7
 10
-24.356191430112752
 20
-72.250247223672432
 30
0.0
 40
1.0
  0
CIRCLE
  5
350
  8
PATTERN_FILL
  6
CONTINUOUS
 62
     7
 10
-20.556191430112751
 20
-72.250247223672432
 30
0.0
 40
1.0
  0
CIRCLE
  5
351
  8
PATTERN_FILL
  6
CONTINUOUS
 62
     7
 10
-16.756191430112729
 20
-72.250247223672432
 30
0.0
 40
1.0
  0
CIRCLE
  5
352
  8
PATTERN_FILL
  6
CONTINUOUS
 62
     7
 10
-12.956191430112741
 20
-72.250247223672432
 30
0.0
 40
1.0
  0
CIRCLE
  5
353
  8
PATTERN_FILL
  6
CONTINUOUS
 62
     7
 10
-9.1561914301127398
 20
-72.250247223672432
 30
0.0
 40
1.0
  0
CIRCLE
  5
354
  8
PATTERN_FILL
  6
CONTINUOUS
 62
     7
 10
-5.3561914301127436
 20
-72.250247223672432
 30
0.0
 40
1.0
  0
CIRCLE
  5
355
  8
PATTERN_FILL
  6
CONTINUOUS
 62
     7
 10
-1.5561914301127471
 20
-72.250247223672432
 30
0.0
 40
1.0
  0
CIRCLE
  5
356
  8
PATTERN_FILL
  6
CONTINUOUS
 62
     7
 10
2.243808569887249
 20
-72.250247223672432
 30
0.0
 40
1.0
  0
CIRCLE
  5
357
  8
PATTERN_FILL
  6
CONTINUOUS
 62
     7
 10
6.043808569887247
 20
-72.250247223672432
 30
0.0
 40
1.0
  0
CIRCLE
  5
358
  8
PATTERN_FILL
  6
CONTINUOUS
 62
     7
 10
9.8438085698872442
 20
-72.250247223672432
 30
0.0
 40
1.0
  0
CIRCLE
  5
359
  8
PATTERN_FILL
  6
CONTINUOUS
 62
     7
 10
13.64380856988724
 20
-72.250247223672432
 30
0.0
 40
1.0
  0
CIRCLE
  5
35A
  8
PATTERN_FILL
  6
CONTINUOUS
 62
     7
 10
17.443808569887238
 20
-72.250247223672432
 30
0.0
 40
1.0
  0
CIRCLE
  5
35B
  8
PATTERN_FILL
  6
CONTINUOUS
 62
     7
 10
21.243808569887239
 20
-72.250247223672432
 30
0.0
 40
1.0
  0
CIRCLE
  5
35C
  8
PATTERN_FILL
  6
CONTINUOUS
 62
     7
 10
25.043808569887229
 20
-72.250247223672432
 30
0.0
 40
1.0
  0
CIRCLE
  5
35D
  8
PATTERN_FILL
  6
CONTINUOUS
 62
     7
 10
28.843808569887241
 20
-72.250247223672432
 30
0.0
 40
1.0
  0
CIRCLE
  5
35E
  8
PATTERN_FILL
  6
CONTINUOUS
 62
     7
 10
32.643808569887241
 20
-72.250247223672432
 30
0.0
 40
1.0
  0
CIRCLE
  5
35F
  8
PATTERN_FILL
  6
CONTINUOUS
 62
     7
 10
36.443808569887217
 20
-72.250247223672432
 30
0.0
 40
1.0
  0
CIRCLE
  5
360
  8
PATTERN_FILL
  6
CONTINUOUS
 62
     7
 10
40.243808569887221
 20
-72.250247223672432
 30
0.0
 40
1.0
  0
CIRCLE
  5
361
  8
PATTERN_FILL
  6
CONTINUOUS
 62
     7
 10
44.043808569887219
 20
-72.250247223672432
 30
0.0
 40
1.0
  0
CIRCLE
  5
362
  8
PATTERN_FILL
  6
CONTINUOUS
 62
     7
 10
47.843808569887209
 20
-72.250247223672432
 30
0.0
 40
1.0
  0
ARC
  5
363
  8
PATTERN_FILL
  6
CONTINUOUS
 62
     7
 10
51.643808569887213
 20
-72.250247223672432
 30
0.0
 40
1.000000000000004
 50
90.150194610219003
 51
201.72495489741459
  0
ARC
  5
364
  8
PATTERN_FILL
  6
CONTINUOUS
 62
     7
 10
-39.556191430112719
 20
-76.050247223672415
 30
0.0
 40
0.9999999999999747
 50
332.42734514947239
 51
106.83266290464439
  0
CIRCLE
  5
365
  8
PATTERN_FILL
  6
CONTINUOUS
 62
     7
 10
-35.756191430112743
 20
-76.050247223672415
 30
0.0
 40
1.0
  0
CIRCLE
  5
366
  8
PATTERN_FILL
  6
CONTINUOUS
 62
     7
 10
-31.956191430112749
 20
-76.050247223672415
 30
0.0
 40
1.0
  0
CIRCLE
  5
367
  8
PATTERN_FILL
  6
CONTINUOUS
 62
     7
 10
-28.156191430112749
 20
-76.050247223672415
 30
0.0
 40
1.0
  0
CIRCLE
  5
368
  8
PATTERN_FILL
  6
CONTINUOUS
 62
     7
 10
-24.356191430112752
 20
-76.050247223672415
 30
0.0
 40
1.0
  0
CIRCLE
  5
369
  8
PATTERN_FILL
  6
CONTINUOUS
 62
     7
 10
-20.556191430112751
 20
-76.050247223672415
 30
0.0
 40
1.0
  0
CIRCLE
  5
36A
  8
PATTERN_FILL
  6
CONTINUOUS
 62
     7
 10
-16.756191430112729
 20
-76.050247223672415
 30
0.0
 40
1.0
  0
CIRCLE
  5
36B
  8
PATTERN_FILL
  6
CONTINUOUS
 62
     7
 10
-12.956191430112741
 20
-76.050247223672415
 30
0.0
 40
1.0
  0
CIRCLE
  5
36C
  8
PATTERN_FILL
  6
CONTINUOUS
 62
     7
 10
-9.1561914301127398
 20
-76.050247223672415
 30
0.0
 40
1.0
  0
CIRCLE
  5
36D
  8
PATTERN_FILL
  6
CONTINUOUS
 62
     7
 10
-5.3561914301127436
 20
-76.050247223672415
 30
0.0
 40
1.0
  0
CIRCLE
  5
36E
  8
PATTERN_FILL
  6
CONTINUOUS
 62
     7
 10
-1.5561914301127471
 20
-76.050247223672415
 30
0.0
 40
1.0
  0
CIRCLE
  5
36F
  8
PATTERN_FILL
  6
CONTINUOUS
 62
     7
 10
2.243808569887249
 20
-76.050247223672415
 30
0.0
 40
1.0
  0
CIRCLE
  5
370
  8
PATTERN_FILL
  6
CONTINUOUS
 62
     7
 10
6.043808569887247
 20
-76.050247223672415
 30
0.0
 40
1.0
  0
CIRCLE
  5
371
  8
PATTERN_FILL
  6
CONTINUOUS
 62
     7
 10
9.8438085698872442
 20
-76.050247223672415
 30
0.0
 40
1.0
  0
CIRCLE
  5
372
  8
PATTERN_FILL
  6
CONTINUOUS
 62
     7
 10
13.64380856988724
 20
-76.050247223672415
 30
0.0
 40
1.0
  0
CIRCLE
  5
373
  8
PATTERN_FILL
  6
CONTINUOUS
 62
     7
 10
17.443808569887238
 20
-76.050247223672415
 30
0.0
 40
1.0
  0
CIRCLE
  5
374
  8
PATTERN_FILL
  6
CONTINUOUS
 62
     7
 10
21.243808569887239
 20
-76.050247223672415
 30
0.0
 40
1.0
  0
CIRCLE
  5
375
  8
PATTERN_FILL
  6
CONTINUOUS
 62
     7
 10
25.043808569887229
 20
-76.050247223672415
 30
0.0
 40
1.0
  0
CIRCLE
  5
376
  8
PATTERN_FILL
  6
CONTINUOUS
 62
     7
 10
28.843808569887241
 20
-76.050247223672415
 30
0.0
 40
1.0
  0
CIRCLE
  5
377
  8
PATTERN_FILL
  6
CONTINUOUS
 62
     7
 10
32.643808569887241
 20
-76.050247223672415
 30
0.0
 40
1.0
  0
CIRCLE
  5
378
  8
PATTERN_FILL
  6
CONTINUOUS
 62
     7
 10
36.443808569887217
 20
-76.050247223672415
 30
0.0
 40
1.0
  0
CIRCLE
  5
379
  8
PATTERN_FILL
  6
CONTINUOUS
 62
     7
 10
40.243808569887221
 20
-76.050247223672415
 30
0.0
 40
1.0
  0
CIRCLE
  5
37A
  8
PATTERN_FILL
  6
CONTINUOUS
 62
     7
 10
44.043808569887219
 20
-76.050247223672415
 30
0.0
 40
1.0
  0
ARC
  5
37B
  8
PATTERN_FILL
  6
CONTINUOUS
 62
     7
 10
47.843808569887209
 20
-76.050247223672415
 30
0.0
 40
0.9999999999999955
 50
39.865194049187608
 51
239.79572788544431
  0
ARC
  5
37C
  8
PATTERN_FILL
  6
CONTINUOUS
 62
     7
 10
-35.756191430112743
 20
-79.850247223672412
 30
0.0
 40
1.00000000000001
 50
325.7523170505292
 51
125.8077683718349
  0
CIRCLE
  5
37D
  8
PATTERN_FILL
  6
CONTINUOUS
 62
     7
 10
-31.956191430112749
 20
-79.850247223672412
 30
0.0
 40
1.0
  0
CIRCLE
  5
37E
  8
PATTERN_FILL
  6
CONTINUOUS
 62
     7
 10
-28.156191430112749
 20
-79.850247223672412
 30
0.0
 40
1.0
  0
CIRCLE
  5
37F
  8
PATTERN_FILL
  6
CONTINUOUS
 62
     7
 10
-24.356191430112752
 20
-79.850247223672412
 30
0.0
 40
1.0
  0
CIRCLE
  5
380
  8
PATTERN_FILL
  6
CONTINUOUS
 62
     7
 10
-20.556191430112751
 20
-79.850247223672412
 30
0.0
 40
1.0
  0
CIRCLE
  5
381
  8
PATTERN_FILL
  6
CONTINUOUS
 62
     7
 10
-16.756191430112729
 20
-79.850247223672412
 30
0.0
 40
1.0
  0
CIRCLE
  5
382
  8
PATTERN_FILL
  6
CONTINUOUS
 62
     7
 10
-12.956191430112741
 20
-79.850247223672412
 30
0.0
 40
1.0
  0
CIRCLE
  5
383
  8
PATTERN_FILL
  6
CONTINUOUS
 62
     7
 10
-9.1561914301127398
 20
-79.850247223672412
 30
0.0
 40
1.0
  0
ARC
  5
384
  8
PATTERN_FILL
  6
CONTINUOUS
 62
     7
 10
-5.3561914301127436
 20
-79.850247223672412
 30
0.0
 40
1.0000000000000051
 50
67.310643405280089
 51
214.2933876328315
  0
ARC
  5
385
  8
PATTERN_FILL
  6
CONTINUOUS
 62
     7
 10
13.64380856988724
 20
-79.850247223672412
 30
0.0
 40
1.000000000000002
 50
5.9424024953666894
 51
72.453566466525999
  0
CIRCLE
  5
386
  8
PATTERN_FILL
  6
CONTINUOUS
 62
     7
 10
17.443808569887238
 20
-79.850247223672412
 30
0.0
 40
1.0
  0
CIRCLE
  5
387
  8
PATTERN_FILL
  6
CONTINUOUS
 62
     7
 10
21.243808569887239
 20
-79.850247223672412
 30
0.0
 40
1.0
  0
CIRCLE
  5
388
  8
PATTERN_FILL
  6
CONTINUOUS
 62
     7
 10
25.043808569887229
 20
-79.850247223672412
 30
0.0
 40
1.0
  0
CIRCLE
  5
389
  8
PATTERN_FILL
  6
CONTINUOUS
 62
     7
 10
28.843808569887241
 20
-79.850247223672412
 30
0.0
 40
1.0
  0
CIRCLE
  5
38A
  8
PATTERN_FILL
  6
CONTINUOUS
 62
     7
 10
32.643808569887241
 20
-79.850247223672412
 30
0.0
 40
1.0
  0
CIRCLE
  5
38B
  8
PATTERN_FILL
  6
CONTINUOUS
 62
     7
 10
36.443808569887217
 20
-79.850247223672412
 30
0.0
 40
1.0
  0
CIRCLE
  5
38C
  8
PATTERN_FILL
  6
CONTINUOUS
 62
     7
 10
40.243808569887221
 20
-79.850247223672412
 30
0.0
 40
1.0
  0
ARC
  5
38D
  8
PATTERN_FILL
  6
CONTINUOUS
 62
     7
 10
44.043808569887219
 20
-79.850247223672412
 30
0.0
 40
0.9999999999999939
 50
24.00730954427743
 51
243.21618432438689
  0
ARC
  5
38E
  8
PATTERN_FILL
  6
CONTINUOUS
 62
     7
 10
-31.956191430112781
 20
-83.650247223672423
 30
0.0
 40
1.00000000000004
 50
354.02751273975008
 51
109.7969401011093
  0
CIRCLE
  5
38F
  8
PATTERN_FILL
  6
CONTINUOUS
 62
     7
 10
-28.156191430112749
 20
-83.650247223672423
 30
0.0
 40
1.0
  0
CIRCLE
  5
390
  8
PATTERN_FILL
  6
CONTINUOUS
 62
     7
 10
-24.356191430112752
 20
-83.650247223672423
 30
0.0
 40
1.0
  0
CIRCLE
  5
391
  8
PATTERN_FILL
  6
CONTINUOUS
 62
     7
 10
-20.556191430112751
 20
-83.650247223672423
 30
0.0
 40
1.0
  0
CIRCLE
  5
392
  8
PATTERN_FILL
  6
CONTINUOUS
 62
     7
 10
-16.756191430112729
 20
-83.650247223672423
 30
0.0
 40
1.0
  0
CIRCLE
  5
393
  8
PATTERN_FILL
  6
CONTINUOUS
 62
     7
 10
-12.956191430112741
 20
-83.650247223672423
 30
0.0
 40
1.0
  0
ARC
  5
394
  8
PATTERN_FILL
  6
CONTINUOUS
 62
     7
 10
-9.1561914301127398
 20
-83.650247223672423
 30
0.0
 40
1.000000000000002
 50
35.784990141942032
 51
245.81904089617021
  0
ARC
  5
395
  8
PATTERN_FILL
  6
CONTINUOUS
 62
     7
 10
17.443808569887249
 20
-83.650247223672423
 30
0.0
 40
0.9999999999999952
 50
326.23365136540912
 51
112.1623175964813
  0
CIRCLE
  5
396
  8
PATTERN_FILL
  6
CONTINUOUS
 62
     7
 10
21.243808569887239
 20
-83.650247223672423
 30
0.0
 40
1.0
  0
CIRCLE
  5
397
  8
PATTERN_FILL
  6
CONTINUOUS
 62
     7
 10
25.043808569887229
 20
-83.650247223672423
 30
0.0
 40
1.0
  0
CIRCLE
  5
398
  8
PATTERN_FILL
  6
CONTINUOUS
 62
     7
 10
28.843808569887241
 20
-83.650247223672423
 30
0.0
 40
1.0
  0
CIRCLE
  5
399
  8
PATTERN_FILL
  6
CONTINUOUS
 62
     7
 10
32.643808569887241
 20
-83.650247223672423
 30
0.0
 40
1.0
  0
CIRCLE
  5
39A
  8
PATTERN_FILL
  6
CONTINUOUS
 62
     7
 10
36.443808569887217
 20
-83.650247223672423
 30
0.0
 40
1.0
  0
ARC
  5
39B
  8
PATTERN_FILL
  6
CONTINUOUS
 62
     7
 10
40.243808569887221
 20
-83.650247223672423
 30
0.0
 40
0.9999999999999915
 50
42.361610834554149
 51
212.48928893254791
  0
ARC
  5
39C
  8
PATTERN_FILL
  6
CONTINUOUS
 62
     7
 10
-24.35619143011272
 20
-87.450247223672378
 30
0.0
 40
1.0000000000000011
 50
316.18642472621519
 51
178.82975611243421
  0
CIRCLE
  5
39D
  8
PATTERN_FILL
  6
CONTINUOUS
 62
     7
 10
-20.556191430112751
 20
-87.450247223672434
 30
0.0
 40
1.0
  0
CIRCLE
  5
39E
  8
PATTERN_FILL
  6
CONTINUOUS
 62
     7
 10
-16.756191430112729
 20
-87.450247223672434
 30
0.0
 40
1.0
  0
ARC
  5
39F
  8
PATTERN_FILL
  6
CONTINUOUS
 62
     7
 10
-12.956191430112741
 20
-87.450247223672378
 30
0.0
 40
1.000000000000008
 50
357.44481843998858
 51
284.1592125981162
  0
CIRCLE
  5
3A0
  8
PATTERN_FILL
  6
CONTINUOUS
 62
     7
 10
21.243808569887239
 20
-87.450247223672434
 30
0.0
 40
1.0
  0
CIRCLE
  5
3A1
  8
PATTERN_FILL
  6
CONTINUOUS
 62
     7
 10
25.043808569887229
 20
-87.450247223672434
 30
0.0
 40
1.0
  0
CIRCLE
  5
3A2
  8
PATTERN_FILL
  6
CONTINUOUS
 62
     7
 10
28.843808569887241
 20
-87.450247223672434
 30
0.0
 40
1.0
  0
ARC
  5
3A3
  8
PATTERN_FILL
  6
CONTINUOUS
 62
     7
 10
32.643808569887213
 20
-87.450247223672434
 30
0.0
 40
1.0000000000000011
 50
333.9913837255998
 51
230.74577612732699
  0
ARC
  5
3A4
  8
PATTERN_FILL
  6
CONTINUOUS
 62
     7
 10
122.8
 20
11.4
 30
0.0
 40
1.0
 50
68.164820836288285
 51
223.71514686973379
  0
ARC
  5
3A5
  8
PATTERN_FILL
  6
CONTINUOUS
 62
     7
 10
122.8
 20
15.199999999999999
 30
0.0
 40
0.9999999999999998
 50
238.1802597193539
 51
82.425429306813726
  0
ARC
  5
3A6
  8
PATTERN_FILL
  6
CONTINUOUS
 62
     7
 10
126.59999999999999
 20
19.0
 30
0.0
 40
0.999999999999998
 50
18.081842813066238
 51
280.3310487236613
  0
CIRCLE
  5
3A7
  8
PATTERN_FILL
  6
CONTINUOUS
 62
     7
 10
126.59999999999999
 20
22.800000000000001
 30
0.0
 40
1.0
  0
ARC
  5
3A8
  8
PATTERN_FILL
  6
CONTINUOUS
 62
     7
 10
126.59999999999999
 20
26.600000000000001
 30
0.0
 40
1.000000000000002
 50
241.47652380772041
 51
83.877196436224295
  0
ARC
  5
3A9
  8
PATTERN_FILL
  6
CONTINUOUS
 62
     7
 10
126.59999999999999
 20
30.400000000000009
 30
0.0
 40
1.0000000000000051
 50
319.72395083779747
 51
7.0685991107786208
  0
ARC
  5
3AA
  8
PATTERN_FILL
  6
CONTINUOUS
 62
     7
 10
130.40000000000001
 20
22.800000000000001
 30
0.0
 40
1.000000000000002
 50
109.94197867686781
 51
192.47133978958919
  0
CIRCLE
  5
3AB
  8
PATTERN_FILL
  6
CONTINUOUS
 62
     7
 10
130.40000000000001
 20
26.600000000000001
 30
0.0
 40
1.0
  0
CIRCLE
  5
3AC
  8
PATTERN_FILL
  6
CONTINUOUS
 62
     7
 10
130.40000000000001
 20
30.400000000000009
 30
0.0
 40
1.0
  0
CIRCLE
  5
3AD
  8
PATTERN_FILL
  6
CONTINUOUS
 62
     7
 10
130.40000000000001
 20
34.200000000000003
 30
0.0
 40
1.0
  0
ARC
  5
3AE
  8
PATTERN_FILL
  6
CONTINUOUS
 62
     7
 10
130.40000000000001
 20
38.000000000000021
 30
0.0
 40
0.9999999999999852
 50
212.57548210469801
 51
117.518649954757
  0
ARC
  5
3AF
  8
PATTERN_FILL
  6
CONTINUOUS
 62
     7
 10
130.40000000000001
 20
41.79999999999999
 30
0.0
 40
0.9999999999999962
 50
272.11414671288111
 51
59.432960415822961
  0
ARC
  5
3B0
  8
PATTERN_FILL
  6
CONTINUOUS
 62
     7
 10
134.19999999999999
 20
30.400000000000009
 30
0.0
 40
1.0000000000000011
 50
106.04066144074309
 51
202.89856768554361
  0
CIRCLE
  5
3B1
  8
PATTERN_FILL
  6
CONTINUOUS
 62
     7
 10
134.19999999999999
 20
34.200000000000003
 30
0.0
 40
1.0
  0
CIRCLE
  5
3B2
  8
PATTERN_FILL
  6
CONTINUOUS
 62
     7
 10
134.19999999999999
 20
38.0
 30
0.0
 40
1.0
  0
CIRCLE
  5
3B3
  8
PATTERN_FILL
  6
CONTINUOUS
 62
     7
 10
134.19999999999999
 20
41.79999999999999
 30
0.0
 40
1.0
  0
CIRCLE
  5
3B4
  8
PATTERN_FILL
  6
CONTINUOUS
 62
     7
 10
134.19999999999999
 20
45.600000000000001
 30
0.0
 40
1.0
  0
CIRCLE
  5
3B5
  8
PATTERN_FILL
  6
CONTINUOUS
 62
     7
 10
134.19999999999999
 20
49.399999999999991
 30
0.0
 40
1.0
  0
ARC
  5
3B6
  8
PATTERN_FILL
  6
CONTINUOUS
 62
     7
 10
134.19999999999999
 20
53.199999999999989
 30
0.0
 40
1.000000000000012
 50
200.2971137886002
 51
135.9757105754677
  0
ARC
  5
3B7
  8
PATTERN_FILL
  6
CONTINUOUS
 62
     7
 10
134.19999999999999
 20
56.999999999999993
 30
0.0
 40
1.0000000000000031
 50
253.68362016992199
 51
84.059094915802007
  0
ARC
  5
3B8
  8
PATTERN_FILL
  6
CONTINUOUS
 62
     7
 10
134.19999999999999
 20
60.799999999999969
 30
0.0
 40
0.9999999999999932
 50
297.89997267555952
 51
41.320088174819489
  0
ARC
  5
3B9
  8
PATTERN_FILL
  6
CONTINUOUS
 62
     7
 10
138.0
 20
41.79999999999999
 30
0.0
 40
1.0000000000000011
 50
49.266577620079133
 51
268.90501933093913
  0
CIRCLE
  5
3BA
  8
PATTERN_FILL
  6
CONTINUOUS
 62
     7
 10
138.0
 20
45.600000000000001
 30
0.0
 40
1.0
  0
CIRCLE
  5
3BB
  8
PATTERN_FILL
  6
CONTINUOUS
 62
     7
 10
138.0
 20
49.399999999999991
 30
0.0
 40
1.0
  0
CIRCLE
  5
3BC
  8
PATTERN_FILL
  6
CONTINUOUS
 62
     7
 10
138.0
 20
53.199999999999989
 30
0.0
 40
1.0
  0
CIRCLE
  5
3BD
  8
PATTERN_FILL
  6
CONTINUOUS
 62
     7
 10
138.0
 20
56.999999999999993
 30
0.0
 40
1.0
  0
CIRCLE
  5
3BE
  8
PATTERN_FILL
  6
CONTINUOUS
 62
     7
 10
138.0
 20
60.799999999999983
 30
0.0
 40
1.0
  0
CIRCLE
  5
3BF
  8
PATTERN_FILL
  6
CONTINUOUS
 62
     7
 10
138.0
 20
64.59999999999998
 30
0.0
 40
1.0
  0
CIRCLE
  5
3C0
  8
PATTERN_FILL
  6
CONTINUOUS
 62
     7
 10
138.0
 20
68.399999999999977
 30
0.0
 40
1.0
  0
CIRCLE
  5
3C1
  8
PATTERN_FILL
  6
CONTINUOUS
 62
     7
 10
138.0
 20
72.199999999999974
 30
0.0
 40
1.0
  0
ARC
  5
3C2
  8
PATTERN_FILL
  6
CONTINUOUS
 62
     7
 10
138.0
 20
75.999999999999986
 30
0.0
 40
1.0000000000000051
 50
209.8249280900319
 51
135.56314550882871
  0
ARC
  5
3C3
  8
PATTERN_FILL
  6
CONTINUOUS
 62
     7
 10
138.0
 20
79.799999999999983
 30
0.0
 40
0.9999999999999975
 50
243.5980347214992
 51
103.27853960729681
  0
ARC
  5
3C4
  8
PATTERN_FILL
  6
CONTINUOUS
 62
     7
 10
138.0
 20
83.599999999999966
 30
0.0
 40
0.9999999999999962
 50
268.20203334951918
 51
80.167502889244915
  0
ARC
  5
3C5
  8
PATTERN_FILL
  6
CONTINUOUS
 62
     7
 10
138.0
 20
87.399999999999963
 30
0.0
 40
0.9999999999999936
 50
290.44489977206263
 51
59.421570689364103
  0
ARC
  5
3C6
  8
PATTERN_FILL
  6
CONTINUOUS
 62
     7
 10
138.0
 20
91.199999999999946
 30
0.0
 40
1.0000000000000031
 50
313.59805892467989
 51
37.768821180528668
  0
ARC
  5
3C7
  8
PATTERN_FILL
  6
CONTINUOUS
 62
     7
 10
141.80000000000001
 20
49.399999999999991
 30
0.0
 40
1.0000000000000011
 50
119.7183415337807
 51
204.9491687510361
  0
ARC
  5
3C8
  8
PATTERN_FILL
  6
CONTINUOUS
 62
     7
 10
141.80000000000001
 20
53.199999999999989
 30
0.0
 40
0.9999999999999985
 50
51.916174366043812
 51
275.55251367318169
  0
CIRCLE
  5
3C9
  8
PATTERN_FILL
  6
CONTINUOUS
 62
     7
 10
141.80000000000001
 20
56.999999999999993
 30
0.0
 40
1.0
  0
CIRCLE
  5
3CA
  8
PATTERN_FILL
  6
CONTINUOUS
 62
     7
 10
141.80000000000001
 20
60.799999999999983
 30
0.0
 40
1.0
  0
CIRCLE
  5
3CB
  8
PATTERN_FILL
  6
CONTINUOUS
 62
     7
 10
141.80000000000001
 20
64.59999999999998
 30
0.0
 40
1.0
  0
CIRCLE
  5
3CC
  8
PATTERN_FILL
  6
CONTINUOUS
 62
     7
 10
141.80000000000001
 20
68.399999999999977
 30
0.0
 40
1.0
  0
CIRCLE
  5
3CD
  8
PATTERN_FILL
  6
CONTINUOUS
 62
     7
 10
141.80000000000001
 20
72.199999999999974
 30
0.0
 40
1.0
  0
CIRCLE
  5
3CE
  8
PATTERN_FILL
  6
CONTINUOUS
 62
     7
 10
141.80000000000001
 20
75.999999999999972
 30
0.0
 40
1.0
  0
CIRCLE
  5
3CF
  8
PATTERN_FILL
  6
CONTINUOUS
 62
     7
 10
141.80000000000001
 20
79.799999999999983
 30
0.0
 40
1.0
  0
CIRCLE
  5
3D0
  8
PATTERN_FILL
  6
CONTINUOUS
 62
     7
 10
141.80000000000001
 20
83.599999999999966
 30
0.0
 40
1.0
  0
CIRCLE
  5
3D1
  8
PATTERN_FILL
  6
CONTINUOUS
 62
     7
 10
141.80000000000001
 20
87.399999999999963
 30
0.0
 40
1.0
  0
CIRCLE
  5
3D2
  8
PATTERN_FILL
  6
CONTINUOUS
 62
     7
 10
141.80000000000001
 20
91.199999999999946
 30
0.0
 40
1.0
  0
CIRCLE
  5
3D3
  8
PATTERN_FILL
  6
CONTINUOUS
 62
     7
 10
141.80000000000001
 20
94.999999999999957
 30
0.0
 40
1.0
  0
CIRCLE
  5
3D4
  8
PATTERN_FILL
  6
CONTINUOUS
 62
     7
 10
141.80000000000001
 20
98.799999999999969
 30
0.0
 40
1.0
  0
CIRCLE
  5
3D5
  8
PATTERN_FILL
  6
CONTINUOUS
 62
     7
 10
141.80000000000001
 20
102.59999999999989
 30
0.0
 40
1.0
  0
CIRCLE
  5
3D6
  8
PATTERN_FILL
  6
CONTINUOUS
 62
     7
 10
141.80000000000001
 20
106.39999999999991
 30
0.0
 40
1.0
  0
CIRCLE
  5
3D7
  8
PATTERN_FILL
  6
CONTINUOUS
 62
     7
 10
141.80000000000001
 20
110.1999999999999
 30
0.0
 40
1.0
  0
CIRCLE
  5
3D8
  8
PATTERN_FILL
  6
CONTINUOUS
 62
     7
 10
141.80000000000001
 20
113.9999999999999
 30
0.0
 40
1.0
  0
ARC
  5
3D9
  8
PATTERN_FILL
  6
CONTINUOUS
 62
     7
 10
141.80000000000001
 20
117.7999999999999
 30
0.0
 40
0.9999999999999992
 50
229.47520558922989
 51
69.346943692917861
  0
ARC
  5
3DA
  8
PATTERN_FILL
  6
CONTINUOUS
 62
     7
 10
145.59999999999999
 20
64.59999999999998
 30
0.0
 40
1.000000000000004
 50
112.8952854936648
 51
223.8138211912362
  0
ARC
  5
3DB
  8
PATTERN_FILL
  6
CONTINUOUS
 62
     7
 10
145.59999999999999
 20
68.399999999999977
 30
0.0
 40
1.0000000000000011
 50
71.028336397215256
 51
268.55584030255193
  0
ARC
  5
3DC
  8
PATTERN_FILL
  6
CONTINUOUS
 62
     7
 10
145.59999999999999
 20
72.199999999999974
 30
0.0
 40
0.9999999999999945
 50
29.943189943960508
 51
312.54226677865103
  0
CIRCLE
  5
3DD
  8
PATTERN_FILL
  6
CONTINUOUS
 62
     7
 10
145.59999999999999
 20
75.999999999999972
 30
0.0
 40
1.0
  0
CIRCLE
  5
3DE
  8
PATTERN_FILL
  6
CONTINUOUS
 62
     7
 10
145.59999999999999
 20
79.799999999999983
 30
0.0
 40
1.0
  0
CIRCLE
  5
3DF
  8
PATTERN_FILL
  6
CONTINUOUS
 62
     7
 10
145.59999999999999
 20
83.599999999999966
 30
0.0
 40
1.0
  0
CIRCLE
  5
3E0
  8
PATTERN_FILL
  6
CONTINUOUS
 62
     7
 10
145.59999999999999
 20
87.399999999999963
 30
0.0
 40
1.0
  0
CIRCLE
  5
3E1
  8
PATTERN_FILL
  6
CONTINUOUS
 62
     7
 10
145.59999999999999
 20
91.199999999999946
 30
0.0
 40
1.0
  0
CIRCLE
  5
3E2
  8
PATTERN_FILL
  6
CONTINUOUS
 62
     7
 10
145.59999999999999
 20
94.999999999999957
 30
0.0
 40
1.0
  0
CIRCLE
  5
3E3
  8
PATTERN_FILL
  6
CONTINUOUS
 62
     7
 10
145.59999999999999
 20
98.799999999999969
 30
0.0
 40
1.0
  0
CIRCLE
  5
3E4
  8
PATTERN_FILL
  6
CONTINUOUS
 62
     7
 10
145.59999999999999
 20
102.59999999999989
 30
0.0
 40
1.0
  0
CIRCLE
  5
3E5
  8
PATTERN_FILL
  6
CONTINUOUS
 62
     7
 10
145.59999999999999
 20
106.39999999999991
 30
0.0
 40
1.0
  0
CIRCLE
  5
3E6
  8
PATTERN_FILL
  6
CONTINUOUS
 62
     7
 10
145.59999999999999
 20
110.1999999999999
 30
0.0
 40
1.0
  0
CIRCLE
  5
3E7
  8
PATTERN_FILL
  6
CONTINUOUS
 62
     7
 10
145.59999999999999
 20
113.9999999999999
 30
0.0
 40
1.0
  0
CIRCLE
  5
3E8
  8
PATTERN_FILL
  6
CONTINUOUS
 62
     7
 10
145.59999999999999
 20
117.7999999999999
 30
0.0
 40
1.0
  0
CIRCLE
  5
3E9
  8
PATTERN_FILL
  6
CONTINUOUS
 62
     7
 10
145.59999999999999
 20
121.59999999999989
 30
0.0
 40
1.0
  0
ARC
  5
3EA
  8
PATTERN_FILL
  6
CONTINUOUS
 62
     7
 10
145.59999999999999
 20
125.39999999999991
 30
0.0
 40
1.000000000000002
 50
264.48017275207559
 51
346.56305855306709
  0
ARC
  5
3EB
  8
PATTERN_FILL
  6
CONTINUOUS
 62
     7
 10
145.59999999999999
 20
125.39999999999991
 30
0.0
 40
0.9999999999999998
 50
30.606784306543741
 51
34.34197653007211
  0
LINE
  5
3EC
  8
SPEC
  6
CONTINUOUS
 62
     7
 10
-147.49999999999989
 20
507.06362999999988
 30
0.0
 11
295.0
 21
507.06362999999988
 31
0.0
  0
LINE
  5
3ED
  8
SPEC
  6
CONTINUOUS
 62
     7
 10
-147.49999999999989
 20
495.81362999999988
 30
0.0
 11
295.0
 21
495.81362999999988
 31
0.0
  0
LINE
  5
3EE
  8
SPEC
  6
CONTINUOUS
 62
     7
 10
-147.49999999999989
 20
450.81362999999988
 30
0.0
 11
295.0
 21
450.81362999999988
 31
0.0
  0
LINE
  5
3EF
  8
SPEC
  6
CONTINUOUS
 62
     7
 10
-147.49999999999989
 20
462.06362999999988
 30
0.0
 11
295.0
 21
462.06362999999988
 31
0.0
  0
LINE
  5
3F0
  8
SPEC
  6
CONTINUOUS
 62
     7
 10
-147.49999999999989
 20
473.31362999999988
 30
0.0
 11
295.0
 21
473.31362999999988
 31
0.0
  0
LINE
  5
3F1
  8
SPEC
  6
CONTINUOUS
 62
     7
 10
-147.49999999999989
 20
439.56362999999988
 30
0.0
 11
295.0
 21
439.56362999999988
 31
0.0
  0
LINE
  5
3F2
  8
SPEC
  6
CONTINUOUS
 62
     7
 10
-147.49999999999989
 20
428.31362999999988
 30
0.0
 11
295.0
 21
428.31362999999988
 31
0.0
  0
LINE
  5
3F3
  8
SPEC
  6
CONTINUOUS
 62
     7
 10
-147.49999999999989
 20
405.81362999999988
 30
0.0
 11
295.0
 21
405.81362999999988
 31
0.0
  0
LINE
  5
3F4
  8
SPEC
  6
CONTINUOUS
 62
     7
 10
-147.49999999999989
 20
484.56362999999988
 30
0.0
 11
295.0
 21
484.56362999999988
 31
0.0
  0
LINE
  5
3F5
  8
SPEC
  6
CONTINUOUS
 62
     7
 10
-147.49999999999989
 20
507.06362999999988
 30
0.0
 11
-147.49999999999989
 21
349.56362999999988
 31
0.0
  0
TEXT
  5
3F6
  8
SPEC
 62
     7
 10
-143.74999999999989
 20
511.24343999999979
 30
0.0
 40
7.3297851562499989
  1
仕様
 41
0.7
 11
-143.74999999999989
 21
518.57322515624992
 31
0.0
 73
     3
1001
ACADANNOTATIVE
1000
AnnotativeData
1002
{
1070
     1
1070
     0
1002
}
  0
LINE
  5
3F7
  8
SPEC
  6
CONTINUOUS
 62
     7
 10
-50.0
 20
507.06362999999988
 30
0.0
 11
-50.0
 21
349.56362999999988
 31
0.0
  0
LINE
  5
3F8
  8
SPEC
  6
CONTINUOUS
 62
     7
 10
295.0
 20
507.06362999999988
 30
0.0
 11
295.0
 21
349.56362999999988
 31
0.0
  0
TEXT
  5
3F9
  8
SPEC
 62
     7
 10
-145.00777590359289
 20
363.90626673398589
 30
0.0
 40
5.7009440104166647
  1
質量
 41
0.7
 11
-145.00777590359289
 21
369.60721074440261
 31
0.0
 73
     3
1001
ACADANNOTATIVE
1000
AnnotativeData
1002
{
1070
     1
1070
     0
1002
}
  0
TEXT
  5
3FA
  8
SPEC
 62
     7
 10
-47.329523203885422
 20
363.56902792122349
 30
0.0
 40
5.7009440104166647
  1
600g
 41
0.7
 11
-47.329523203885422
 21
369.26997193164021
 31
0.0
 73
     3
1001
ACADANNOTATIVE
1000
AnnotativeData
1002
{
1070
     1
1070
     0
1002
}
  0
TEXT
  5
3FB
  8
SPEC
 62
     7
 10
-145.07029930287911
 20
374.70313317089818
 30
0.0
 40
5.7009440104166647
  1
寸法(W\U+00D7H\U+00D7D)
 41
0.7
 11
-145.07029930287911
 21
380.4040771813149
 31
0.0
 73
     3
1001
ACADANNOTATIVE
1000
AnnotativeData
1002
{
1070
     1
1070
     0
1002
}
  0
TEXT
  5
3FC
  8
SPEC
 62
     7
 10
-47.612425367038533
 20
374.81822488433357
 30
0.0
 40
5.7009440104166647
  1
109\U+00D748\U+00D7146mm(除突起物)
 41
0.7
 11
-47.612425367038533
 21
380.51916889475018
 31
0.0
 73
     3
1001
ACADANNOTATIVE
1000
AnnotativeData
1002
{
1070
     1
1070
     0
1002
}
  0
TEXT
  5
3FD
  8
SPEC
 62
     7
 10
-144.9452524968533
 20
420.00949934133467
 30
0.0
 40
5.7009440104166647
  1
電源
 41
0.7
 11
-144.9452524968533
 21
425.71044335175139
 31
0.0
 73
     3
1001
ACADANNOTATIVE
1000
AnnotativeData
1002
{
1070
     1
1070
     0
1002
}
  0
TEXT
  5
3FE
  8
SPEC
 62
     7
 10
-47.334543660341609
 20
420.02385858000918
 30
0.0
 40
5.7009440104166647
  1
単3形アルカリ乾電池\U+00D71または単3形リチウム乾電池\U+00D71または単3形ニッケル水素充電池\U+00D71
 41
0.7
 11
-47.334543660341609
 21
425.72480259042578
 31
0.0
 73
     3
1001
ACADANNOTATIVE
1000
AnnotativeData
1002
{
1070
     1
1070
     0
1002
}
  0
TEXT
  5
3FF
  8
SPEC
 62
     7
 10
-145.2161872780249
 20
431.3220227704345
 30
0.0
 40
5.7009440104166647
  1
インピーダンス
 41
0.7
 11
-145.2161872780249
 21
437.02296678085111
 31
0.0
 73
     3
1001
ACADANNOTATIVE
1000
AnnotativeData
1002
{
1070
     1
1070
     0
1002
}
  0
TEXT
  5
400
  8
SPEC
 62
     7
 10
-47.278967298795301
 20
431.32943493161758
 30
0.0
 40
5.7009440104166647
  1
600\U+03A9
 41
0.7
 11
-47.278967298795301
 21
437.03037894203442
 31
0.0
 73
     3
1001
ACADANNOTATIVE
1000
AnnotativeData
1002
{
1070
     1
1070
     0
1002
}
  0
TEXT
  5
401
  8
SPEC
 62
     7
 10
-144.88272907520701
 20
442.19688229273009
 30
0.0
 40
5.7009440104166647
  1
等価雑音レベル
 41
0.7
 11
-144.88272907520701
 21
447.89782630314693
 31
0.0
 73
     3
1001
ACADANNOTATIVE
1000
AnnotativeData
1002
{
1070
     1
1070
     0
1002
}
  0
TEXT
  5
402
  8
SPEC
 62
     7
 10
-47.167814585640727
 20
442.52385859988487
 30
0.0
 40
5.7009440104166647
  1
21dB SPL(Aウェイト）
 41
0.7
 11
-47.167814585640727
 21
448.22480261030148
 31
0.0
 73
     3
1001
ACADANNOTATIVE
1000
AnnotativeData
1002
{
1070
     1
1070
     0
1002
}
  0
TEXT
  5
403
  8
SPEC
 62
     7
 10
-144.72642052295461
 20
453.66571424799542
 30
0.0
 40
5.7009440104166647
  1
最大音圧レベル
 41
0.7
 11
-144.72642052295461
 21
459.36665825841209
 31
0.0
 73
     3
1001
ACADANNOTATIVE
1000
AnnotativeData
1002
{
1070
     1
1070
     0
1002
}
  0
TEXT
  5
404
  8
SPEC
 62
     7
 10
-47.66800169048981
 20
453.69049408240988
 30
0.0
 40
5.7009440104166647
  1
125dB SPL(THD 1%%%)
 41
0.7
 11
-47.66800169048981
 21
459.3914380928266
 31
0.0
 73
     3
1001
ACADANNOTATIVE
1000
AnnotativeData
1002
{
1070
     1
1070
     0
1002
}
  0
TEXT
  5
405
  8
SPEC
 62
     7
 10
-145.19534615735171
 20
464.82192912111611
 30
0.0
 40
5.7009440104166647
  1
開回路感度
 41
0.7
 11
-145.19534615735171
 21
470.52287313153272
 31
0.0
 73
     3
1001
ACADANNOTATIVE
1000
AnnotativeData
1002
{
1070
     1
1070
     0
1002
}
  0
TEXT
  5
406
  8
SPEC
 62
     7
 10
-47.199076265718709
 20
464.95091464988928
 30
0.0
 40
5.7009440104166647
  1
-34dB re 1V/Pa
 41
0.7
 11
-47.199076265718709
 21
470.651858660306
 31
0.0
 73
     3
1001
ACADANNOTATIVE
1000
AnnotativeData
1002
{
1070
     1
1070
     0
1002
}
  0
TEXT
  5
407
  8
SPEC
 62
     7
 10
-144.9139907683284
 20
476.071929121116
 30
0.0
 40
5.7009440104166647
  1
周波数特性
 41
0.7
 11
-144.9139907683284
 21
481.77287313153272
 31
0.0
 73
     3
1001
ACADANNOTATIVE
1000
AnnotativeData
1002
{
1070
     1
1070
     0
1002
}
  0
TEXT
  5
408
  8
SPEC
 62
     7
 10
-47.199076265718709
 20
476.10712956493501
 30
0.0
 40
5.7009440104166647
  1
50Hz～20kHz
 41
0.7
 11
-47.199076265718709
 21
481.80807357535173
 31
0.0
 73
     3
1001
ACADANNOTATIVE
1000
AnnotativeData
1002
{
1070
     1
1070
     0
1002
}
  0
TEXT
  5
409
  8
SPEC
 62
     7
 10
-145.00777590359289
 20
487.321929121116
 30
0.0
 40
5.7009440104166647
  1
指向特性
 41
0.7
 11
-145.00777590359289
 21
493.02287313153272
 31
0.0
 73
     3
1001
ACADANNOTATIVE
1000
AnnotativeData
1002
{
1070
     1
1070
     0
1002
}
  0
TEXT
  5
40A
  8
SPEC
 62
     7
 10
-47.76178677544403
 20
487.5446997348435
 30
0.0
 40
5.7009440104166647
  1
カーディオイド
 41
0.7
 11
-47.76178677544403
 21
493.24564374526011
 31
0.0
 73
     3
1001
ACADANNOTATIVE
1000
AnnotativeData
1002
{
1070
     1
1070
     0
1002
}
  0
TEXT
  5
40B
  8
SPEC
 62
     7
 10
-145.00777590359289
 20
498.571929121116
 30
0.0
 40
5.7009440104166647
  1
形式
 41
0.7
 11
-145.00777590359289
 21
504.27287313153272
 31
0.0
 73
     3
1001
ACADANNOTATIVE
1000
AnnotativeData
1002
{
1070
     1
1070
     0
1002
}
  0
TEXT
  5
40C
  8
SPEC
 62
     7
 10
-47.94935694535247
 20
498.79469973484339
 30
0.0
 40
5.7009440104166647
  1
コンデンサー型 
 41
0.7
 11
-47.94935694535247
 21
504.49564374526022
 31
0.0
 73
     3
1001
ACADANNOTATIVE
1000
AnnotativeData
1002
{
1070
     1
1070
     0
1002
}
  0
TEXT
  5
40D
  8
SPEC
 62
     7
 10
-48.947518124050681
 20
408.90927736588873
 30
0.0
 40
5.7009440104166647
  1
＊電池寿命は使用環境により異なる。
 41
0.7
 11
-48.947518124050681
 21
414.61022137630539
 31
0.0
 73
     3
1001
ACADANNOTATIVE
1000
AnnotativeData
1002
{
1070
     1
1070
     0
1002
}
  0
LINE
  5
40E
  8
SPEC
  6
CONTINUOUS
 62
     7
 10
-147.49999999999989
 20
383.31362999999988
 30
0.0
 11
295.0
 21
383.31362999999988
 31
0.0
  0
LINE
  5
40F
  8
SPEC
  6
CONTINUOUS
 62
     7
 10
-147.49999999999989
 20
372.06362999999988
 30
0.0
 11
295.0
 21
372.06362999999988
 31
0.0
  0
LINE
  5
410
  8
SPEC
  6
CONTINUOUS
 62
     7
 10
-147.49999999999989
 20
360.81362999999988
 30
0.0
 11
295.0
 21
360.81362999999988
 31
0.0
  0
TEXT
  5
411
  8
SPEC
 62
     7
 10
-145.5999109473116
 20
397.31768494923818
 30
0.0
 40
5.7009440104166647
  1
コネクター
 41
0.7
 11
-145.5999109473116
 21
403.01862895965479
 31
0.0
 73
     3
1001
ACADANNOTATIVE
1000
AnnotativeData
1002
{
1070
     1
1070
     0
1002
}
  0
TEXT
  5
412
  8
SPEC
 62
     7
 10
-47.697425093434681
 20
397.47793169225389
 30
0.0
 40
5.7009440104166647
  1
ボディーパック型送信機用出力：ミニXLR3ピン(メス）
 41
0.7
 11
-47.697425093434681
 21
403.1788757026705
 31
0.0
 73
     3
1001
ACADANNOTATIVE
1000
AnnotativeData
1002
{
1070
     1
1070
     0
1002
}
  0
TEXT
  5
413
  8
SPEC
 62
     7
 10
-47.280602523451627
 20
386.06120265233511
 30
0.0
 40
5.7009440104166647
  1
CBL410 PCC用入力：3.5mmステレオ・ミニジャック
 41
0.7
 11
-47.280602523451627
 21
391.76214666275172
 31
0.0
 73
     3
1001
ACADANNOTATIVE
1000
AnnotativeData
1002
{
1070
     1
1070
     0
1002
}
  0
LINE
  5
414
  8
SPEC
  6
CONTINUOUS
 62
     7
 10
-147.49999999999989
 20
349.56362999999988
 30
0.0
 11
295.0
 21
349.56362999999988
 31
0.0
  0
TEXT
  5
415
  8
SPEC
 62
     7
 10
-145.00777590359289
 20
352.656266733986
 30
0.0
 40
5.7009440104166647
  1
付属品
 41
0.7
 11
-145.00777590359289
 21
358.35721074440261
 31
0.0
 73
     3
1001
ACADANNOTATIVE
1000
AnnotativeData
1002
{
1070
     1
1070
     0
1002
}
  0
TEXT
  5
416
  8
SPEC
 62
     7
 10
-47.329523203885422
 20
352.61080271624462
 30
0.0
 40
5.7009440104166647
  1
単3形アルカリ乾電池、和文クイックッスタ ートガイド
 41
0.7
 11
-47.329523203885422
 21
358.31174672666123
 31
0.0
 73
     3
1001
ACADANNOTATIVE
1000
AnnotativeData
1002
{
1070
     1
1070
     0
1002
}
  0
TEXT
  5
417
  8
DIMNSIONS
 62
     7
 10
40.0
 20
-206.12790000000001
 30
0.0
 40
7.3297851562499989
  1
(単位：mm)
 41
0.7
 11
40.0
 21
-198.79811484375
 31
0.0
 73
     3
1001
ACADANNOTATIVE
1000
AnnotativeData
1002
{
1070
     1
1070
     0
1002
}
  0
LINE
  5
418
  8
DIMNSIONS
  6
CONTINUOUS
 62
     7
 10
-50.000000000000021
 20
-106.0
 30
0.0
 11
-50.000000000000021
 21
-146.0
 31
0.0
  0
LINE
  5
419
  8
DIMNSIONS
  6
CONTINUOUS
 62
     7
 10
58.999999999999993
 20
-106.0
 30
0.0
 11
58.999999999999993
 21
-146.0
 31
0.0
  0
LINE
  5
41A
  8
DIMNSIONS
  6
CONTINUOUS
 62
     7
 10
-50.000000000000021
 20
-140.0
 30
0.0
 11
58.999999999999993
 21
-140.0
 31
0.0
  0
LINE
  5
41B
  8
DIMNSIONS
  6
CONTINUOUS
 62
     7
 10
-50.000000000000021
 20
-140.0
 30
0.0
 11
-42.498132324218759
 21
-137.98988061454921
 31
0.0
  0
LINE
  5
41C
  8
DIMNSIONS
  6
CONTINUOUS
 62
     7
 10
-50.000000000000021
 20
-140.0
 30
0.0
 11
-42.498132324218759
 21
-142.01011938545071
 31
0.0
  0
LINE
  5
41D
  8
DIMNSIONS
  6
CONTINUOUS
 62
     7
 10
58.999999999999993
 20
-140.0
 30
0.0
 11
51.49813232421873
 21
-142.01011938545071
 31
0.0
  0
LINE
  5
41E
  8
DIMNSIONS
  6
CONTINUOUS
 62
     7
 10
58.999999999999993
 20
-140.0
 30
0.0
 11
51.49813232421873
 21
-137.98988061454921
 31
0.0
  0
TEXT
  5
41F
  8
DIMNSIONS
 62
     7
 10
-3.4375020186106431
 20
-137.01833298007639
 30
0.0
 40
8.1442076708969022
  1
109
 41
0.7
 11
-3.4375020186106431
 21
-128.8741253091795
 31
0.0
 73
     3
1001
ACADANNOTATIVE
1000
AnnotativeData
1002
{
1070
     1
1070
     0
1002
}
  0
LINE
  5
420
  8
DIMNSIONS
  6
CONTINUOUS
 62
     7
 10
-1.625050491196546
 20
0.0
 30
0.0
 11
-96.0
 21
0.0
 31
0.0
  0
LINE
  5
421
  8
DIMNSIONS
  6
CONTINUOUS
 62
     7
 10
-1.4999999999999849
 20
145.99999999068621
 30
0.0
 11
-96.0
 21
145.99999999068621
 31
0.0
  0
LINE
  5
422
  8
DIMNSIONS
  6
CONTINUOUS
 62
     7
 10
-90.000000000000014
 20
0.0
 30
0.0
 11
-90.000000000000014
 21
145.99999999068621
 31
0.0
  0
LINE
  5
423
  8
DIMNSIONS
  6
CONTINUOUS
 62
     7
 10
-90.000000000000014
 20
0.0
 30
0.0
 11
-92.010119385450764
 21
7.5018676757812539
 31
0.0
  0
LINE
  5
424
  8
DIMNSIONS
  6
CONTINUOUS
 62
     7
 10
-90.000000000000014
 20
0.0
 30
0.0
 11
-87.989880614549264
 21
7.5018676757812539
 31
0.0
  0
LINE
  5
425
  8
DIMNSIONS
  6
CONTINUOUS
 62
     7
 10
-90.000000000000014
 20
145.99999999068621
 30
0.0
 11
-87.989880614549264
 21
138.49813231490501
 31
0.0
  0
LINE
  5
426
  8
DIMNSIONS
  6
CONTINUOUS
 62
     7
 10
-90.000000000000014
 20
145.99999999068621
 30
0.0
 11
-92.010119385450764
 21
138.49813231490501
 31
0.0
  0
TEXT
  5
427
  8
DIMNSIONS
 62
     7
 10
-92.981667019923563
 20
65.062497976732502
 30
0.0
 40
8.1442076708969022
  1
146
 50
90.0
 41
0.7
 11
-101.1258746908205
 21
65.062497976732502
 31
0.0
 73
     3
1001
ACADANNOTATIVE
1000
AnnotativeData
1002
{
1070
     1
1070
     0
1002
}
  0
LINE
  5
428
  8
DIMNSIONS
  6
CONTINUOUS
 62
     7
 10
-56.000000000000021
 20
-100.0
 30
0.0
 11
-96.0
 21
-100.0
 31
0.0
  0
LINE
  5
429
  8
DIMNSIONS
  6
CONTINUOUS
 62
     7
 10
-1.5000000000001841
 20
-52.0
 30
0.0
 11
-96.0
 21
-52.0
 31
0.0
  0
LINE
  5
42A
  8
DIMNSIONS
  6
CONTINUOUS
 62
     7
 10
-90.000000000000014
 20
-100.0
 30
0.0
 11
-90.000000000000014
 21
-52.0
 31
0.0
  0
LINE
  5
42B
  8
DIMNSIONS
  6
CONTINUOUS
 62
     7
 10
-90.000000000000014
 20
-100.0
 30
0.0
 11
-92.010119385450764
 21
-92.49813232421873
 31
0.0
  0
LINE
  5
42C
  8
DIMNSIONS
  6
CONTINUOUS
 62
     7
 10
-90.000000000000014
 20
-100.0
 30
0.0
 11
-87.989880614549264
 21
-92.49813232421873
 31
0.0
  0
LINE
  5
42D
  8
DIMNSIONS
  6
CONTINUOUS
 62
     7
 10
-90.000000000000014
 20
-52.0
 30
0.0
 11
-87.989880614549264
 21
-59.501867675781263
 31
0.0
  0
LINE
  5
42E
  8
DIMNSIONS
  6
CONTINUOUS
 62
     7
 10
-90.000000000000014
 20
-52.0
 30
0.0
 11
-92.010119385450764
 21
-59.501867675781263
 31
0.0
  0
TEXT
  5
42F
  8
DIMNSIONS
 62
     7
 10
-92.981667108237815
 20
-86.583336361249266
 30
0.0
 40
8.1442081563294657
  1
48.0
 50
90.0
 41
0.7
 11
-101.1258752645673
 21
-86.583336361249266
 31
0.0
 73
     3
1001
ACADANNOTATIVE
1000
AnnotativeData
1002
{
1070
     1
1070
     0
1002
}
  0
TEXT
  5
430
  8
DATA
 62
     7
 10
250.0
 20
-209.5437
 30
0.0
 40
7.3297851562499989
  1
CBL31 WLS
 41
0.7
 11
250.0
 21
-202.21391484374999
 31
0.0
 73
     3
1001
ACADANNOTATIVE
1000
AnnotativeData
1002
{
1070
     1
1070
     0
1002
}
  0
TEXT
  5
431
  8
DATA
 62
     7
 10
250.0
 20
-187.7937
 30
0.0
 40
7.3297851562499989
  1
AKG
 41
0.7
 11
250.0
 21
-180.46391484374999
 31
0.0
 73
     3
1001
ACADANNOTATIVE
1000
AnnotativeData
1002
{
1070
     1
1070
     0
1002
}
  0
LINE
  5
432
  8
DATA
  6
CONTINUOUS
 62
     7
 10
4.5000000000000142
 20
0.0
 30
0.0
 11
4.3749495088034527
 21
0.0
 31
0.0
  0
LINE
  5
433
  8
DATA
  6
CONTINUOUS
 62
     7
 10
-50.000000000000021
 20
-100.0
 30
0.0
 11
-50.000000000000021
 21
-80.18915384042964
 31
0.0
  0
LINE
  5
434
  8
DATA
  6
CONTINUOUS
 62
     7
 10
58.999999999999993
 20
-100.0
 30
0.0
 11
-50.000000000000021
 21
-100.0
 31
0.0
  0
LINE
  5
435
  8
DATA
  6
CONTINUOUS
 62
     7
 10
58.999999999999993
 20
-80.189153840429583
 30
0.0
 11
58.999999999999993
 21
-100.0
 31
0.0
  0
LINE
  5
436
  8
DATA
  6
CONTINUOUS
 62
     7
 10
100.0
 20
144.2194771869973
 30
0.0
 11
100.0
 21
0.0
 31
0.0
  0
ARC
  5
437
  8
DATA
  6
CONTINUOUS
 62
     7
 10
4.3749495088034527
 20
302.13870505744671
 30
0.0
 40
302.13873093566821
 50
265.69761942693373
 51
274.3104720903446
  0
ARC
  5
438
  8
DATA
  6
CONTINUOUS
 62
     7
 10
-16.416042052735531
 20
25.780946247381522
 30
0.0
 40
24.999999999997399
 50
184.4148132487268
 51
265.69761942694009
  0
ARC
  5
439
  8
DATA
  6
CONTINUOUS
 62
     7
 10
-35.000268052470958
 20
126.9347329194924
 30
0.0
 40
14.99999999999908
 50
101.9763204658003
 51
184.41481324872689
  0
LINE
  5
43A
  8
DATA
  6
CONTINUOUS
 62
     7
 10
-49.955761312012207
 20
125.78008086636621
 30
0.0
 11
-41.341864151969887
 21
23.856526158837859
 31
0.0
  0
ARC
  5
43B
  8
DATA
  6
CONTINUOUS
 62
     7
 10
25.41604205273557
 20
25.780946247381522
 30
0.0
 40
24.99999999999741
 50
274.30238057305991
 51
355.58518675127328
  0
ARC
  5
43C
  8
DATA
  6
CONTINUOUS
 62
     7
 10
44.000268052470972
 20
126.9347329194924
 30
0.0
 40
14.999999999999069
 50
355.58518675127328
 51
78.023679534199687
  0
LINE
  5
43D
  8
DATA
  6
CONTINUOUS
 62
     7
 10
58.955761312012221
 20
125.78008086636621
 30
0.0
 11
50.341864151969922
 21
23.856526158837859
 31
0.0
  0
ARC
  5
43E
  8
DATA
  6
CONTINUOUS
 62
     7
 10
4.5
 20
-62.930227077367419
 30
0.0
 40
208.93022706805371
 50
78.231523188015544
 51
101.7684768119844
  0
LINE
  5
43F
  8
DATA
  6
CONTINUOUS
 62
     7
 10
-34.198090798997931
 20
25.258568030864812
 30
0.0
 11
-41.488635827024908
 21
108.6710248633661
 31
0.0
  0
LINE
  5
440
  8
DATA
  6
CONTINUOUS
 62
     7
 10
43.198090798997271
 20
25.258568030864659
 30
0.0
 11
50.488635827024851
 21
108.6710248633662
 31
0.0
  0
LINE
  5
441
  8
DATA
  6
CONTINUOUS
 62
     7
 10
-8.7839373566958567
 20
7.0
 30
0.0
 11
17.928203230275539
 21
7.0
 31
0.0
  0
ARC
  5
442
  8
DATA
  6
CONTINUOUS
 62
     7
 10
-14.274049675348509
 20
27.0
 30
0.0
 40
20.0
 50
184.99516048926961
 51
270.0
  0
ARC
  5
443
  8
DATA
  6
CONTINUOUS
 62
     7
 10
23.27404967534784
 20
27.0
 30
0.0
 40
20.0
 50
270.0
 51
355.00483951072988
  0
LINE
  5
444
  8
DATA
  6
CONTINUOUS
 62
     7
 10
-5.0745857517550244
 20
20.98602514396179
 30
0.0
 11
-12.705426830260929
 21
7.5198350054224354
 31
0.0
  0
LINE
  5
445
  8
DATA
  6
CONTINUOUS
 62
     7
 10
14.07735026918961
 20
21.0
 30
0.0
 11
21.867132961151292
 21
7.5077005976017688
 31
0.0
  0
LINE
  5
446
  8
DATA
  6
CONTINUOUS
 62
     7
 10
-3.3345413800578139
 20
22.0
 30
0.0
 11
12.345299461620741
 21
22.0
 31
0.0
  0
LINE
  5
447
  8
DATA
  6
CONTINUOUS
 62
     7
 10
-2.5345413800578731
 20
19.0
 30
0.0
 11
11.57735026918963
 21
19.0
 31
0.0
  0
LINE
  5
448
  8
DATA
  6
CONTINUOUS
 62
     7
 10
-4.2745857517550832
 20
17.986025143961779
 30
0.0
 11
-9.6539595425444542
 21
8.4930125719808984
 31
0.0
  0
LINE
  5
449
  8
DATA
  6
CONTINUOUS
 62
     7
 10
13.309401076758499
 20
18.0
 30
0.0
 11
18.79422863405998
 21
8.5
 31
0.0
  0
ARC
  5
44A
  8
DATA
  6
CONTINUOUS
 62
     7
 10
-3.3345413800578001
 20
20.000000000000011
 30
0.0
 40
1.9999999999999849
 50
90.000000000000441
 51
150.4612177404417
  0
ARC
  5
44B
  8
DATA
  6
CONTINUOUS
 62
     7
 10
12.345299461620719
 20
20.0
 30
0.0
 40
2.0000000000000031
 50
29.999999999999929
 51
89.999999999999574
  0
ARC
  5
44C
  8
DATA
  6
CONTINUOUS
 62
     7
 10
-2.5345413800578589
 20
17.000000000000021
 30
0.0
 40
1.9999999999999849
 50
90.000000000000441
 51
150.4612177404417
  0
ARC
  5
44D
  8
DATA
  6
CONTINUOUS
 62
     7
 10
11.577350269189621
 20
17.0
 30
0.0
 40
2.0000000000000031
 50
29.999999999999929
 51
89.999999999999574
  0
ARC
  5
44E
  8
DATA
  6
CONTINUOUS
 62
     7
 10
-8.7839373566958567
 20
8.0
 30
0.0
 40
0.999999999999996
 50
150.46121774044059
 51
270.0
  0
ARC
  5
44F
  8
DATA
  6
CONTINUOUS
 62
     7
 10
17.928203230275539
 20
8.0
 30
0.0
 40
1.0
 50
270.0
 51
30.00000000000011
  0
ARC
  5
450
  8
DATA
  6
CONTINUOUS
 62
     7
 10
-13.575449016109131
 20
8.0128475774031074
 30
0.0
 40
0.9999999999995395
 50
272.10715229894572
 51
330.46121774044059
  0
ARC
  5
451
  8
DATA
  6
CONTINUOUS
 62
     7
 10
22.73315836493498
 20
8.0077005976013425
 30
0.0
 40
0.9999999999991182
 50
210.00000000000099
 51
268.36868543474071
  0
LINE
  5
452
  8
DATA
  6
CONTINUOUS
 62
     7
 10
-14.274049675348509
 20
7.0
 30
0.0
 11
-13.53868056036012
 21
7.0135237656879488
 31
0.0
  0
LINE
  5
453
  8
DATA
  6
CONTINUOUS
 62
     7
 10
22.704690401229861
 20
7.0081058922128241
 30
0.0
 11
23.27404967534784
 21
7.0
 31
0.0
  0
CIRCLE
  5
454
  8
DATA
  6
CONTINUOUS
 62
     7
 10
4.572132936789842
 20
10.205007239000681
 30
0.0
 40
1.400000000000005
  0
ARC
  5
455
  8
DATA
  6
CONTINUOUS
 62
     7
 10
4.4999999999999849
 20
9.5712789410248984
 30
0.0
 40
2.7493348775212141
 50
27.8530740564022
 51
152.14692594359781
  0
ARC
  5
456
  8
DATA
  6
CONTINUOUS
 62
     7
 10
4.509911815636527
 20
9.5862323346803464
 30
0.0
 40
3.6592761931780751
 50
35.770120489763649
 51
144.51335563089751
  0
ARC
  5
457
  8
DATA
  6
CONTINUOUS
 62
     7
 10
4.5086091722025108
 20
8.7110917085448438
 30
0.0
 40
5.4328533758145321
 50
48.179650331049032
 51
131.9761730444167
  0
ARC
  5
458
  8
DATA
  6
CONTINUOUS
 62
     7
 10
4.5
 20
12.285818737608601
 30
0.0
 40
113.7141812530776
 50
69.673804933077065
 51
110.32619506692281
  0
ARC
  5
459
  8
DATA
  6
CONTINUOUS
 62
     7
 10
-31.526615265200931
 20
109.5417408479335
 30
0.0
 40
9.9999999999992291
 50
110.3261950669182
 51
184.99516048926961
  0
ARC
  5
45A
  8
DATA
  6
CONTINUOUS
 62
     7
 10
40.526615265201173
 20
109.5417408479337
 30
0.0
 40
9.9999999999989608
 50
355.00483951072988
 51
69.673804933083318
  0
LINE
  5
45B
  8
DATA
  6
CONTINUOUS
 62
     7
 10
-26.274748089666691
 20
128.62966079303561
 30
0.0
 11
-26.063984837753139
 21
126.8183262773078
 31
0.0
  0
LINE
  5
45C
  8
DATA
  6
CONTINUOUS
 62
     7
 10
35.274748089666602
 20
128.62966079303391
 30
0.0
 11
35.063984837753182
 21
126.81832627730731
 31
0.0
  0
ARC
  5
45D
  8
DATA
  6
CONTINUOUS
 62
     7
 10
4.5
 20
14.919626570616231
 30
0.0
 40
113.7141812530776
 50
75.701993052186893
 51
104.29800694781279
  0
ARC
  5
45E
  8
DATA
  6
CONTINUOUS
 62
     7
 10
4.5
 20
20.919626570616231
 30
0.0
 40
113.7141812530776
 50
75.066682930473092
 51
104.9333170695277
  0
TEXT
  5
45F
  8
DATA
 62
     7
 10
0.660309609503244
 20
140.29843750934671
 30
0.0
 40
4.072104078164732
  1
AKG
 41
0.7
 11
0.6603096095032442
 21
144.3705415875115
 31
0.0
 73
     3
1001
ACADANNOTATIVE
1000
AnnotativeData
1002
{
1070
     1
1070
     0
1002
}
  0
TEXT
  5
460
  8
DATA
 62
     7
 10
-0.2400008844149256
 20
136.604348859509
 30
0.0
 40
1.6288416312658931
  1
CBL31 WLS
 41
0.7
 11
-0.2400008844149255
 21
138.2331904907748
 31
0.0
 73
     3
1001
ACADANNOTATIVE
1000
AnnotativeData
1002
{
1070
     1
1070
     0
1002
}
  0
ARC
  5
461
  8
DATA
  6
CONTINUOUS
 62
     7
 10
-24.288151323491391
 20
128.86081720895129
 30
0.0
 40
1.999999999999283
 50
104.9333170695072
 51
186.6369763117774
  0
ARC
  5
462
  8
DATA
  6
CONTINUOUS
 62
     7
 10
-24.077388071576951
 20
127.0494826932236
 30
0.0
 40
2.0000000000001852
 50
186.6369763117774
 51
284.29800694780698
  0
ARC
  5
463
  8
DATA
  6
CONTINUOUS
 62
     7
 10
33.28815132348938
 20
128.86081720894981
 30
0.0
 40
2.000000000001215
 50
353.36302368822282
 51
75.066682930438091
  0
ARC
  5
464
  8
DATA
  6
CONTINUOUS
 62
     7
 10
33.077388071577381
 20
127.0494826932231
 30
0.0
 40
1.9999999999997939
 50
255.70199305218131
 51
353.36302368822271
  0
ARC
  5
465
  8
DATA
  6
CONTINUOUS
 62
     7
 10
4.5
 20
17.248793413358101
 30
0.0
 40
113.7141812530776
 50
75.952819884260435
 51
100.144491043759
  0
ARC
  5
466
  8
DATA
  6
CONTINUOUS
 62
     7
 10
4.5
 20
18.348949656755281
 30
0.0
 40
113.7141812530777
 50
75.817531683635295
 51
100.2350565197949
  0
LINE
  5
467
  8
DATA
  6
CONTINUOUS
 62
     7
 10
32.70666982523084
 20
127.924052512586
 30
0.0
 11
32.723202276701997
 21
127.98892133125381
 31
0.0
  0
ARC
  5
468
  8
DATA
  6
CONTINUOUS
 62
     7
 10
32.222157663850567
 20
128.04753516511011
 30
0.0
 40
0.499999999999764
 50
255.95281988423341
 51
345.70199305218642
  0
ARC
  5
469
  8
DATA
  6
CONTINUOUS
 62
     7
 10
32.238690108101437
 20
128.1124039856181
 30
0.0
 40
0.5000000074508569
 50
345.7019930521862
 51
75.817531683602041
  0
ARC
  5
46A
  8
DATA
  6
CONTINUOUS
 62
     7
 10
-15.61667564328093
 20
129.6774310555345
 30
0.0
 40
0.5000000074505948
 50
180.0
 51
280.14449104375808
  0
ARC
  5
46B
  8
DATA
  6
CONTINUOUS
 62
     7
 10
-15.616675643280949
 20
129.76156203157001
 30
0.0
 40
0.5000000074505711
 50
100.235056519794
 51
180.0
  0
LINE
  5
46C
  8
DATA
  6
CONTINUOUS
 62
     7
 10
-15.70551908904768
 20
130.25360557597941
 30
0.0
 11
-15.7065674529627
 21
130.25341512956041
 31
0.0
  0
LINE
  5
46D
  8
DATA
  6
CONTINUOUS
 62
     7
 10
-19.540101978499159
 20
128.28942239510951
 30
0.0
 11
-22.67845460376056
 21
127.72788199810179
 31
0.0
  0
LINE
  5
46E
  8
DATA
  6
CONTINUOUS
 62
     7
 10
-16.116675650731519
 20
129.6774310555345
 30
0.0
 11
-16.116675650731519
 21
129.76156203157001
 31
0.0
  0
LINE
  5
46F
  8
DATA
  6
CONTINUOUS
 62
     7
 10
-22.89986163366493
 20
128.94667698498699
 30
0.0
 11
-22.67845460376056
 21
127.72788199810179
 31
0.0
  0
LINE
  5
470
  8
DATA
  6
CONTINUOUS
 62
     7
 10
-22.89986163366493
 20
128.94667698498699
 30
0.0
 11
-19.761533827434359
 21
129.51678750063621
 31
0.0
  0
LINE
  5
471
  8
DATA
  6
CONTINUOUS
 62
     7
 10
-19.761533827434381
 20
129.51678750063621
 30
0.0
 11
-19.540101978499148
 21
128.28942239510951
 31
0.0
  0
LINE
  5
472
  8
DATA
  6
CONTINUOUS
 62
     7
 10
-19.681150490240171
 20
129.07123414590271
 30
0.0
 11
-19.339117588473538
 21
129.13286169577049
 31
0.0
  0
LINE
  5
473
  8
DATA
  6
CONTINUOUS
 62
     7
 10
-19.620821153310981
 20
128.7368372497809
 30
0.0
 11
-19.272790333899639
 21
128.79867437464819
 31
0.0
  0
LINE
  5
474
  8
DATA
  6
CONTINUOUS
 62
     7
 10
-19.339117588473538
 20
129.13286169577049
 30
0.0
 11
-19.27279033389965
 21
128.79867437464819
 31
0.0
  0
ARC
  5
475
  8
DATA
  6
CONTINUOUS
 62
     7
 10
4.4999999999999849
 20
123.306189150989
 30
0.0
 40
213.31228176542101
 50
262.27157665300763
 51
277.72842334699237
  0
ARC
  5
476
  8
DATA
  6
CONTINUOUS
 62
     7
 10
-10.7998704367906
 20
-90.530383251247045
 30
0.0
 40
38.535052588895113
 50
118.4575660441523
 51
147.80708448645819
  0
LINE
  5
477
  8
DATA
  6
CONTINUOUS
 62
     7
 10
-43.410507376075117
 20
-70.0
 30
0.0
 11
-46.423155602031137
 21
-72.524750920952059
 31
0.0
  0
ARC
  5
478
  8
DATA
  6
CONTINUOUS
 62
     7
 10
19.79987043679056
 20
-90.530383251247045
 30
0.0
 40
38.535052588895141
 50
32.192915513541713
 51
61.542433955847379
  0
LINE
  5
479
  8
DATA
  6
CONTINUOUS
 62
     7
 10
52.410507376075103
 20
-70.0
 30
0.0
 11
55.423155602031137
 21
-72.524750920952059
 31
0.0
  0
ARC
  5
47A
  8
DATA
  6
CONTINUOUS
 62
     7
 10
-40.000000000000007
 20
-80.18915384042964
 30
0.0
 40
10.0
 50
129.96470249700079
 51
180.0
  0
ARC
  5
47B
  8
DATA
  6
CONTINUOUS
 62
     7
 10
48.999999999999979
 20
-80.189153840429626
 30
0.0
 40
10.000000000000011
 50
359.99999999999977
 51
50.035297502999022
  0
LINE
  5
47C
  8
DATA
  6
CONTINUOUS
 62
     7
 10
-40.300000000000018
 20
-102.5
 30
0.0
 11
-40.300000000000018
 21
-100.4999999999999
 31
0.0
  0
LINE
  5
47D
  8
DATA
  6
CONTINUOUS
 62
     7
 10
-32.700000000000031
 20
-102.5
 30
0.0
 11
-40.300000000000018
 21
-102.5
 31
0.0
  0
LINE
  5
47E
  8
DATA
  6
CONTINUOUS
 62
     7
 10
-32.700000000000031
 20
-100.4999999999999
 30
0.0
 11
-32.700000000000031
 21
-102.5
 31
0.0
  0
LINE
  5
47F
  8
DATA
  6
CONTINUOUS
 62
     7
 10
-28.300000000000029
 20
-102.5
 30
0.0
 11
-28.300000000000029
 21
-100.4999999999999
 31
0.0
  0
LINE
  5
480
  8
DATA
  6
CONTINUOUS
 62
     7
 10
-20.700000000000031
 20
-102.5
 30
0.0
 11
-28.300000000000029
 21
-102.5
 31
0.0
  0
LINE
  5
481
  8
DATA
  6
CONTINUOUS
 62
     7
 10
-20.700000000000031
 20
-100.4999999999999
 30
0.0
 11
-20.700000000000031
 21
-102.5
 31
0.0
  0
LINE
  5
482
  8
DATA
  6
CONTINUOUS
 62
     7
 10
-41.15000000000002
 20
-100.5
 30
0.0
 11
-41.15000000000002
 21
-100.0
 31
0.0
  0
LINE
  5
483
  8
DATA
  6
CONTINUOUS
 62
     7
 10
-31.850000000000009
 20
-100.5
 30
0.0
 11
-41.15000000000002
 21
-100.5
 31
0.0
  0
LINE
  5
484
  8
DATA
  6
CONTINUOUS
 62
     7
 10
-31.850000000000009
 20
-100.0
 30
0.0
 11
-31.850000000000009
 21
-100.5
 31
0.0
  0
LINE
  5
485
  8
DATA
  6
CONTINUOUS
 62
     7
 10
-29.15000000000002
 20
-100.5
 30
0.0
 11
-29.15000000000002
 21
-100.0
 31
0.0
  0
LINE
  5
486
  8
DATA
  6
CONTINUOUS
 62
     7
 10
-19.850000000000019
 20
-100.5
 30
0.0
 11
-29.15000000000002
 21
-100.5
 31
0.0
  0
LINE
  5
487
  8
DATA
  6
CONTINUOUS
 62
     7
 10
-19.850000000000019
 20
-100.0
 30
0.0
 11
-19.850000000000019
 21
-100.5
 31
0.0
  0
LINE
  5
488
  8
DATA
  6
CONTINUOUS
 62
     7
 10
49.29999999999999
 20
-102.5
 30
0.0
 11
49.29999999999999
 21
-100.4999999999999
 31
0.0
  0
LINE
  5
489
  8
DATA
  6
CONTINUOUS
 62
     7
 10
41.700000000000003
 20
-102.5
 30
0.0
 11
49.29999999999999
 21
-102.5
 31
0.0
  0
LINE
  5
48A
  8
DATA
  6
CONTINUOUS
 62
     7
 10
41.700000000000003
 20
-100.4999999999999
 30
0.0
 11
41.700000000000003
 21
-102.5
 31
0.0
  0
LINE
  5
48B
  8
DATA
  6
CONTINUOUS
 62
     7
 10
37.299999999999997
 20
-102.5
 30
0.0
 11
37.299999999999997
 21
-100.4999999999999
 31
0.0
  0
LINE
  5
48C
  8
DATA
  6
CONTINUOUS
 62
     7
 10
29.699999999999999
 20
-102.5
 30
0.0
 11
37.299999999999997
 21
-102.5
 31
0.0
  0
LINE
  5
48D
  8
DATA
  6
CONTINUOUS
 62
     7
 10
29.699999999999999
 20
-100.4999999999999
 30
0.0
 11
29.699999999999999
 21
-102.5
 31
0.0
  0
LINE
  5
48E
  8
DATA
  6
CONTINUOUS
 62
     7
 10
50.149999999999991
 20
-100.5
 30
0.0
 11
50.149999999999991
 21
-100.0
 31
0.0
  0
LINE
  5
48F
  8
DATA
  6
CONTINUOUS
 62
     7
 10
40.849999999999973
 20
-100.5
 30
0.0
 11
50.149999999999991
 21
-100.5
 31
0.0
  0
LINE
  5
490
  8
DATA
  6
CONTINUOUS
 62
     7
 10
40.849999999999973
 20
-100.0
 30
0.0
 11
40.849999999999973
 21
-100.5
 31
0.0
  0
LINE
  5
491
  8
DATA
  6
CONTINUOUS
 62
     7
 10
38.149999999999991
 20
-100.5
 30
0.0
 11
38.149999999999991
 21
-100.0
 31
0.0
  0
LINE
  5
492
  8
DATA
  6
CONTINUOUS
 62
     7
 10
28.850000000000009
 20
-100.5
 30
0.0
 11
38.149999999999991
 21
-100.5
 31
0.0
  0
LINE
  5
493
  8
DATA
  6
CONTINUOUS
 62
     7
 10
28.850000000000009
 20
-100.0
 30
0.0
 11
28.850000000000009
 21
-100.5
 31
0.0
  0
ARC
  5
494
  8
DATA
  6
CONTINUOUS
 62
     7
 10
5.700569356280524
 20
-184.81732069532481
 30
0.0
 40
132.82274670953009
 50
90.517896938134939
 51
105.216989130404
  0
ARC
  5
495
  8
DATA
  6
CONTINUOUS
 62
     7
 10
3.2994306437194458
 20
-184.81732069532481
 30
0.0
 40
132.82274670953009
 50
74.783010869595913
 51
89.482103061865061
  0
LINE
  5
496
  8
DATA
  6
CONTINUOUS
 62
     7
 10
-50.000000000000021
 20
248.00000000001779
 30
0.0
 11
-50.000000000000021
 21
228.1891538404474
 31
0.0
  0
LINE
  5
497
  8
DATA
  6
CONTINUOUS
 62
     7
 10
58.999999999999993
 20
248.00000000001779
 30
0.0
 11
-50.000000000000021
 21
248.00000000001779
 31
0.0
  0
LINE
  5
498
  8
DATA
  6
CONTINUOUS
 62
     7
 10
58.999999999999993
 20
228.18915384044729
 30
0.0
 11
58.999999999999993
 21
248.00000000001779
 31
0.0
  0
ARC
  5
499
  8
DATA
  6
CONTINUOUS
 62
     7
 10
-10.7998704367906
 20
238.53038325126479
 30
0.0
 40
38.535052588895148
 50
213.2566106217264
 51
241.5424339558476
  0
LINE
  5
49A
  8
DATA
  6
CONTINUOUS
 62
     7
 10
-43.993300118854521
 20
218.48840966609799
 30
0.0
 11
-46.423155602031137
 21
220.52475092096981
 31
0.0
  0
ARC
  5
49B
  8
DATA
  6
CONTINUOUS
 62
     7
 10
19.79987043679056
 20
238.53038325126479
 30
0.0
 40
38.535052588895148
 50
298.45756604415271
 51
326.74338937827349
  0
LINE
  5
49C
  8
DATA
  6
CONTINUOUS
 62
     7
 10
52.993300118854492
 20
218.48840966609799
 30
0.0
 11
55.423155602031137
 21
220.52475092096981
 31
0.0
  0
ARC
  5
49D
  8
DATA
  6
CONTINUOUS
 62
     7
 10
-40.000000000000007
 20
228.1891538404474
 30
0.0
 40
10.0
 50
180.0
 51
230.03529750299921
  0
ARC
  5
49E
  8
DATA
  6
CONTINUOUS
 62
     7
 10
48.999999999999979
 20
228.1891538404474
 30
0.0
 40
10.000000000000011
 50
309.96470249700093
 51
0.0
  0
LINE
  5
49F
  8
DATA
  6
CONTINUOUS
 62
     7
 10
-40.300000000000018
 20
250.50000000001771
 30
0.0
 11
-40.300000000000018
 21
248.50000000001771
 31
0.0
  0
LINE
  5
4A0
  8
DATA
  6
CONTINUOUS
 62
     7
 10
-32.700000000000031
 20
250.50000000001771
 30
0.0
 11
-40.300000000000018
 21
250.50000000001771
 31
0.0
  0
LINE
  5
4A1
  8
DATA
  6
CONTINUOUS
 62
     7
 10
-32.700000000000031
 20
248.50000000001771
 30
0.0
 11
-32.700000000000031
 21
250.50000000001771
 31
0.0
  0
LINE
  5
4A2
  8
DATA
  6
CONTINUOUS
 62
     7
 10
-28.300000000000029
 20
250.50000000001771
 30
0.0
 11
-28.300000000000029
 21
248.50000000001771
 31
0.0
  0
LINE
  5
4A3
  8
DATA
  6
CONTINUOUS
 62
     7
 10
-20.700000000000031
 20
250.50000000001771
 30
0.0
 11
-28.300000000000029
 21
250.50000000001771
 31
0.0
  0
LINE
  5
4A4
  8
DATA
  6
CONTINUOUS
 62
     7
 10
-20.700000000000031
 20
248.50000000001771
 30
0.0
 11
-20.700000000000031
 21
250.50000000001771
 31
0.0
  0
LINE
  5
4A5
  8
DATA
  6
CONTINUOUS
 62
     7
 10
-41.15000000000002
 20
248.50000000001771
 30
0.0
 11
-41.15000000000002
 21
248.00000000001779
 31
0.0
  0
LINE
  5
4A6
  8
DATA
  6
CONTINUOUS
 62
     7
 10
-31.850000000000009
 20
248.50000000001771
 30
0.0
 11
-41.15000000000002
 21
248.50000000001771
 31
0.0
  0
LINE
  5
4A7
  8
DATA
  6
CONTINUOUS
 62
     7
 10
-31.850000000000009
 20
248.00000000001779
 30
0.0
 11
-31.850000000000009
 21
248.50000000001771
 31
0.0
  0
LINE
  5
4A8
  8
DATA
  6
CONTINUOUS
 62
     7
 10
-29.15000000000002
 20
248.50000000001771
 30
0.0
 11
-29.15000000000002
 21
248.00000000001779
 31
0.0
  0
LINE
  5
4A9
  8
DATA
  6
CONTINUOUS
 62
     7
 10
-19.850000000000019
 20
248.50000000001771
 30
0.0
 11
-29.15000000000002
 21
248.50000000001771
 31
0.0
  0
LINE
  5
4AA
  8
DATA
  6
CONTINUOUS
 62
     7
 10
-19.850000000000019
 20
248.00000000001779
 30
0.0
 11
-19.850000000000019
 21
248.50000000001771
 31
0.0
  0
LINE
  5
4AB
  8
DATA
  6
CONTINUOUS
 62
     7
 10
49.29999999999999
 20
250.50000000001771
 30
0.0
 11
49.29999999999999
 21
248.50000000001771
 31
0.0
  0
LINE
  5
4AC
  8
DATA
  6
CONTINUOUS
 62
     7
 10
41.700000000000003
 20
250.50000000001771
 30
0.0
 11
49.29999999999999
 21
250.50000000001771
 31
0.0
  0
LINE
  5
4AD
  8
DATA
  6
CONTINUOUS
 62
     7
 10
41.700000000000003
 20
248.50000000001771
 30
0.0
 11
41.700000000000003
 21
250.50000000001771
 31
0.0
  0
LINE
  5
4AE
  8
DATA
  6
CONTINUOUS
 62
     7
 10
37.299999999999997
 20
250.50000000001771
 30
0.0
 11
37.299999999999997
 21
248.50000000001771
 31
0.0
  0
LINE
  5
4AF
  8
DATA
  6
CONTINUOUS
 62
     7
 10
29.699999999999999
 20
250.50000000001771
 30
0.0
 11
37.299999999999997
 21
250.50000000001771
 31
0.0
  0
LINE
  5
4B0
  8
DATA
  6
CONTINUOUS
 62
     7
 10
29.699999999999999
 20
248.50000000001771
 30
0.0
 11
29.699999999999999
 21
250.50000000001771
 31
0.0
  0
LINE
  5
4B1
  8
DATA
  6
CONTINUOUS
 62
     7
 10
50.149999999999991
 20
248.50000000001771
 30
0.0
 11
50.149999999999991
 21
248.00000000001779
 31
0.0
  0
LINE
  5
4B2
  8
DATA
  6
CONTINUOUS
 62
     7
 10
40.849999999999973
 20
248.50000000001771
 30
0.0
 11
50.149999999999991
 21
248.50000000001771
 31
0.0
  0
LINE
  5
4B3
  8
DATA
  6
CONTINUOUS
 62
     7
 10
40.849999999999973
 20
248.00000000001779
 30
0.0
 11
40.849999999999973
 21
248.50000000001771
 31
0.0
  0
LINE
  5
4B4
  8
DATA
  6
CONTINUOUS
 62
     7
 10
38.149999999999991
 20
248.50000000001771
 30
0.0
 11
38.149999999999991
 21
248.00000000001779
 31
0.0
  0
LINE
  5
4B5
  8
DATA
  6
CONTINUOUS
 62
     7
 10
28.850000000000009
 20
248.50000000001771
 30
0.0
 11
38.149999999999991
 21
248.50000000001771
 31
0.0
  0
LINE
  5
4B6
  8
DATA
  6
CONTINUOUS
 62
     7
 10
28.850000000000009
 20
248.00000000001779
 30
0.0
 11
28.850000000000009
 21
248.50000000001771
 31
0.0
  0
ARC
  5
4B7
  8
DATA
  6
CONTINUOUS
 62
     7
 10
5.700569356280524
 20
332.81732069534257
 30
0.0
 40
132.82274670953009
 50
254.7830108695959
 51
269.48210306186508
  0
ARC
  5
4B8
  8
DATA
  6
CONTINUOUS
 62
     7
 10
3.2994306437194458
 20
332.81732069534257
 30
0.0
 40
132.82274670953009
 50
270.51789693813492
 51
285.2169891304041
  0
LINE
  5
4B9
  8
DATA
  6
CONTINUOUS
 62
     7
 10
-47.500000000000021
 20
248.00000000001779
 30
0.0
 11
-47.500000000000021
 21
234.08614980556169
 31
0.0
  0
LINE
  5
4BA
  8
DATA
  6
CONTINUOUS
 62
     7
 10
56.499999999999993
 20
248.00000000001779
 30
0.0
 11
56.499999999999993
 21
234.08614980556169
 31
0.0
  0
LINE
  5
4BB
  8
DATA
  6
CONTINUOUS
 62
     7
 10
-48.195336161207891
 20
232.16559660656841
 30
0.0
 11
-50.000000000000021
 21
230.00000000001771
 31
0.0
  0
LINE
  5
4BC
  8
DATA
  6
CONTINUOUS
 62
     7
 10
57.195336161207848
 20
232.16559660656841
 30
0.0
 11
58.999999999999993
 21
230.00000000001771
 31
0.0
  0
ARC
  5
4BD
  8
DATA
  6
CONTINUOUS
 62
     7
 10
-50.500000000000021
 20
234.08614980556169
 30
0.0
 40
3.0
 50
320.19442890773468
 51
0.0
  0
ARC
  5
4BE
  8
DATA
  6
CONTINUOUS
 62
     7
 10
59.499999999999993
 20
234.08614980556169
 30
0.0
 40
3.0000000000000071
 50
179.99999999999969
 51
219.8055710922649
  0
LINE
  5
4BF
  8
DATA
  6
CONTINUOUS
 62
     7
 10
-20.304561663445948
 20
207.89673976188161
 30
0.0
 11
29.315190535809752
 21
207.89673976188161
 31
0.0
  0
LINE
  5
4C0
  8
DATA
  6
CONTINUOUS
 62
     7
 10
-34.363345588877749
 20
212.22427995328559
 30
0.0
 11
-45.796998812481782
 21
220.00000000001771
 31
0.0
  0
LINE
  5
4C1
  8
DATA
  6
CONTINUOUS
 62
     7
 10
43.357911696881672
 20
212.2133652211453
 30
0.0
 11
54.669993545542127
 21
219.89356319073181
 31
0.0
  0
LINE
  5
4C2
  8
DATA
  6
CONTINUOUS
 62
     7
 10
-47.679185266950682
 20
233.0648740143026
 30
0.0
 11
-24.5
 21
233.0648740143026
 31
0.0
  0
LINE
  5
4C3
  8
DATA
  6
CONTINUOUS
 62
     7
 10
-13.500000000000011
 20
233.0648740143026
 30
0.0
 11
56.679185266950647
 21
233.0648740143026
 31
0.0
  0
LINE
  5
4C4
  8
DATA
  6
CONTINUOUS
 62
     7
 10
-22.500000000000011
 20
248.00000000001779
 30
0.0
 11
-22.500000000000011
 21
232.00000000001771
 31
0.0
  0
LINE
  5
4C5
  8
DATA
  6
CONTINUOUS
 62
     7
 10
-15.500000000000011
 20
248.00000000001779
 30
0.0
 11
-15.500000000000011
 21
232.00000000001771
 31
0.0
  0
LINE
  5
4C6
  8
DATA
  6
CONTINUOUS
 62
     7
 10
-20.500000000000011
 20
230.00000000001771
 30
0.0
 11
-17.500000000000011
 21
230.00000000001771
 31
0.0
  0
ARC
  5
4C7
  8
DATA
  6
CONTINUOUS
 62
     7
 10
-20.500000000000011
 20
232.00000000001771
 30
0.0
 40
2.0
 50
180.0
 51
270.0
  0
ARC
  5
4C8
  8
DATA
  6
CONTINUOUS
 62
     7
 10
-17.500000000000011
 20
232.00000000001771
 30
0.0
 40
2.0
 50
270.0
 51
0.0
  0
LINE
  5
4C9
  8
DATA
  6
CONTINUOUS
 62
     7
 10
-24.500000000000011
 20
248.00000000001779
 30
0.0
 11
-24.500000000000011
 21
231.00000000001771
 31
0.0
  0
LINE
  5
4CA
  8
DATA
  6
CONTINUOUS
 62
     7
 10
-13.500000000000011
 20
248.00000000001779
 30
0.0
 11
-13.500000000000011
 21
231.00000000001771
 31
0.0
  0
LINE
  5
4CB
  8
DATA
  6
CONTINUOUS
 62
     7
 10
-21.5
 20
228.00000000001771
 30
0.0
 11
-16.500000000000021
 21
228.00000000001771
 31
0.0
  0
ARC
  5
4CC
  8
DATA
  6
CONTINUOUS
 62
     7
 10
-21.500000000000011
 20
231.00000000001771
 30
0.0
 40
3.0
 50
180.0
 51
270.0
  0
ARC
  5
4CD
  8
DATA
  6
CONTINUOUS
 62
     7
 10
-16.500000000000021
 20
231.00000000001771
 30
0.0
 40
3.0
 50
270.0
 51
0.0
  0
LINE
  5
4CE
  8
DATA
  6
CONTINUOUS
 62
     7
 10
-49.998210881185237
 20
228.00000000001771
 30
0.0
 11
58.99821088118523
 21
228.00000000001771
 31
0.0
  0
ARC
  5
4CF
  8
DATA
  6
CONTINUOUS
 62
     7
 10
-20.30456166344597
 20
232.89673976188161
 30
0.0
 40
25.0
 50
235.7814337723326
 51
269.99999999999989
  0
ARC
  5
4D0
  8
DATA
  6
CONTINUOUS
 62
     7
 10
29.315190535809752
 20
232.89673976188161
 30
0.0
 40
24.999999999999989
 50
270.0
 51
304.17405842975518
  0
TEXT
  5
4D1
  8
DATA
 62
     7
 10
13.278348804101441
 20
221.69867740360169
 30
0.0
 40
8.9586263020833332
  1
AKG
 50
180.0
 41
0.7
 11
13.278348804101441
 21
212.74005110151839
 31
0.0
 73
     3
1001
ACADANNOTATIVE
1000
AnnotativeData
1002
{
1070
     1
1070
     0
1002
}
  0
CIRCLE
  5
4D2
  8
DATA
  6
CONTINUOUS
 62
     7
 10
31.99821088118523
 20
220.00000000001771
 30
0.0
 40
4.5
  0
CIRCLE
  5
4D3
  8
DATA
  6
CONTINUOUS
 62
     7
 10
31.99821088118523
 20
220.00000000001771
 30
0.0
 40
1.75
  0
LINE
  5
4D4
  8
DATA
  6
CONTINUOUS
 62
     7
 10
36.49821088118523
 20
220.00000000001771
 30
0.0
 11
33.74821088118523
 21
220.00000000001481
 31
0.0
  0
LINE
  5
4D5
  8
DATA
  6
CONTINUOUS
 62
     7
 10
30.24821088118523
 20
220.000000000011
 30
0.0
 11
27.49821088118523
 21
220.0000000000081
 31
0.0
  0
LINE
  5
4D6
  8
DATA
  6
CONTINUOUS
 62
     7
 10
-22.500000000000011
 20
248.00000000001779
 30
0.0
 11
-15.500000000000011
 21
248.00000000001779
 31
0.0
  0
LINE
  5
4D7
  8
DATA
  6
CONTINUOUS
 62
     7
 10
-22.500000000000011
 20
246.00000000001779
 30
0.0
 11
-15.500000000000011
 21
246.00000000001779
 31
0.0
  0
ARC
  5
4D8
  8
DATA
  6
CONTINUOUS
 62
     7
 10
39.683461428765341
 20
217.221961071159
 30
0.0
 40
1.3200000000000001
 50
180.0
 51
0.0
  0
ARC
  5
4D9
  8
DATA
  6
CONTINUOUS
 62
     7
 10
39.683461428765348
 20
218.9428793055948
 30
0.0
 40
1.3199999999999861
 50
0.0000000000006253
 51
180.0
  0
LINE
  5
4DA
  8
DATA
  6
CONTINUOUS
 62
     7
 10
38.363461428765341
 20
217.221961071159
 30
0.0
 11
38.363461428765341
 21
218.9428793055948
 31
0.0
  0
LINE
  5
4DB
  8
DATA
  6
CONTINUOUS
 62
     7
 10
41.00346142876532
 20
218.9428793055948
 30
0.0
 11
41.00346142876532
 21
217.221961071159
 31
0.0
  0
ARC
  5
4DC
  8
DATA
  6
CONTINUOUS
 62
     7
 10
39.683461428765241
 20
219.1655437115501
 30
0.0
 40
1.76302772615447
 50
11.75709309590567
 51
168.24290690409481
  0
LINE
  5
4DD
  8
DATA
  6
CONTINUOUS
 62
     7
 10
39.683461428765227
 20
220.92857143770459
 30
0.0
 11
39.683461428765227
 21
222.51126695887029
 31
0.0
  0
LINE
  5
4DE
  8
DATA
  6
CONTINUOUS
 62
     7
 10
41.283461428765243
 20
222.51126695887029
 30
0.0
 11
38.083461428765233
 21
222.51126695887029
 31
0.0
  0
ARC
  5
4DF
  8
DATA
  6
CONTINUOUS
 62
     7
 10
56.204877919870022
 20
214.65620820635939
 30
0.0
 40
4.9999999999998987
 50
129.9647024970009
 51
146.7433893782738
  0
ARC
  5
4E0
  8
DATA
  6
CONTINUOUS
 62
     7
 10
-47.204877919870214
 20
214.6562082063592
 30
0.0
 40
5.0000000000001377
 50
33.256610621727148
 51
50.035297502998809
  0
LINE
  5
4E1
  8
DATA
  6
CONTINUOUS
 62
     7
 10
148.0
 20
103.9907169121572
 30
0.0
 11
148.0
 21
100.24646371051411
 31
0.0
  0
LINE
  5
4E2
  8
DATA
  6
CONTINUOUS
 62
     7
 10
254.5
 20
0.0
 30
0.0
 11
254.3749495088035
 21
0.0
 31
0.0
  0
ARC
  5
4E3
  8
DATA
  6
CONTINUOUS
 62
     7
 10
254.3749495088035
 20
302.13870505744671
 30
0.0
 40
302.13873093566821
 50
265.69761942693373
 51
274.3104720903446
  0
ARC
  5
4E4
  8
DATA
  6
CONTINUOUS
 62
     7
 10
233.58395794726451
 20
25.780946247381522
 30
0.0
 40
24.999999999997399
 50
184.4148132487268
 51
265.69761942694009
  0
ARC
  5
4E5
  8
DATA
  6
CONTINUOUS
 62
     7
 10
214.999731947529
 20
126.9347329194924
 30
0.0
 40
14.99999999999908
 50
101.9763204658003
 51
184.41481324872689
  0
LINE
  5
4E6
  8
DATA
  6
CONTINUOUS
 62
     7
 10
200.0442386879877
 20
125.78008086636621
 30
0.0
 11
208.6581358480301
 21
23.856526158837859
 31
0.0
  0
ARC
  5
4E7
  8
DATA
  6
CONTINUOUS
 62
     7
 10
275.41604205273558
 20
25.780946247381522
 30
0.0
 40
24.99999999999741
 50
274.30238057305991
 51
355.58518675127328
  0
ARC
  5
4E8
  8
DATA
  6
CONTINUOUS
 62
     7
 10
294.00026805247091
 20
126.9347329194924
 30
0.0
 40
14.999999999999069
 50
355.58518675127328
 51
78.023679534199687
  0
LINE
  5
4E9
  8
DATA
  6
CONTINUOUS
 62
     7
 10
308.9557613120121
 20
125.78008086636621
 30
0.0
 11
300.3418641519699
 21
23.856526158837859
 31
0.0
  0
ARC
  5
4EA
  8
DATA
  6
CONTINUOUS
 62
     7
 10
254.5
 20
-62.930227077367419
 30
0.0
 40
208.93022706805371
 50
78.231523188015544
 51
101.7684768119845
  0
LINE
  5
4EB
  8
DATA
  6
CONTINUOUS
 62
     7
 10
100.0
 20
0.0
 30
0.0
 11
112.6345615026387
 21
1.804937357519832
 31
0.0
  0
ARC
  5
4EC
  8
DATA
  6
CONTINUOUS
 62
     7
 10
-357.30740548364258
 20
49.477778055243867
 30
0.0
 40
509.53315820379021
 50
8.2480460696610773
 51
10.63967702238763
  0
ARC
  5
4ED
  8
DATA
  6
CONTINUOUS
 62
     7
 10
-0.4060804550454691
 20
94.691454714204156
 30
0.0
 40
148.51000922826211
 50
322.79247717727321
 51
2.1436456567455471
  0
ARC
  5
4EE
  8
DATA
  6
CONTINUOUS
 62
     7
 10
111.5031906527402
 20
9.7245333068093203
 30
0.0
 40
8.0000000000001563
 50
278.13010235415612
 51
322.79247717727219
  0
ARC
  5
4EF
  8
DATA
  6
CONTINUOUS
 62
     7
 10
47.000000000002821
 20
108.0854842298463
 30
0.0
 40
100.9999999999971
 50
0.0
 51
8.2480460696613704
  0
LINE
  5
4F0
  8
DATA
  6
CONTINUOUS
 62
     7
 10
148.0
 20
108.0854842298463
 30
0.0
 11
148.0
 21
103.9907169121572
 31
0.0
  0
LINE
  5
4F1
  8
DATA
  6
CONTINUOUS
 62
     7
 10
100.0
 20
144.2194771869973
 30
0.0
 11
105.5245757580881
 21
144.2194771869973
 31
0.0
  0
LINE
  5
4F2
  8
DATA
  6
CONTINUOUS
 62
     7
 10
100.0
 20
144.2194771869973
 30
0.0
 11
114.4217818109525
 21
144.2194771869973
 31
0.0
  0
LINE
  5
4F3
  8
DATA
  6
CONTINUOUS
 62
     7
 10
115.42818813241691
 20
144.39332320744899
 30
0.0
 11
119.451811867583
 21
145.82615397023449
 31
0.0
  0
LINE
  5
4F4
  8
DATA
  6
CONTINUOUS
 62
     7
 10
120.4582181890475
 20
145.99999999068621
 30
0.0
 11
140.51729696106719
 21
145.99999999068561
 31
0.0
  0
ARC
  5
4F5
  8
DATA
  6
CONTINUOUS
 62
     7
 10
140.51729696106719
 20
142.99999999068621
 30
0.0
 40
3.000000000000036
 50
10.639677022388
 51
90.0
  0
ARC
  5
4F6
  8
DATA
  6
CONTINUOUS
 62
     7
 10
114.4217818109525
 20
147.21947718699721
 30
0.0
 40
3.0
 50
269.99999999999989
 51
289.6010463521871
  0
ARC
  5
4F7
  8
DATA
  6
CONTINUOUS
 62
     7
 10
120.4582181890474
 20
142.99999999068621
 30
0.0
 40
3.0
 50
89.999999999998181
 51
109.6010463521871
  0
LINE
  5
4F8
  8
DATA
  6
CONTINUOUS
 62
     7
 10
97.5
 20
16.971042348527181
 30
0.0
 11
99.499999999999986
 21
16.971042348527181
 31
0.0
  0
LINE
  5
4F9
  8
DATA
  6
CONTINUOUS
 62
     7
 10
97.5
 20
9.3710423485271974
 30
0.0
 11
97.5
 21
16.971042348527181
 31
0.0
  0
LINE
  5
4FA
  8
DATA
  6
CONTINUOUS
 62
     7
 10
99.499999999999986
 20
9.3710423485271974
 30
0.0
 11
97.5
 21
9.3710423485271974
 31
0.0
  0
LINE
  5
4FB
  8
DATA
  6
CONTINUOUS
 62
     7
 10
99.499999999999986
 20
17.821042348527168
 30
0.0
 11
100.0
 21
17.821042348527168
 31
0.0
  0
LINE
  5
4FC
  8
DATA
  6
CONTINUOUS
 62
     7
 10
99.499999999999986
 20
8.5210423485272031
 30
0.0
 11
99.499999999999986
 21
17.821042348527168
 31
0.0
  0
LINE
  5
4FD
  8
DATA
  6
CONTINUOUS
 62
     7
 10
100.0
 20
8.5210423485272031
 30
0.0
 11
99.499999999999986
 21
8.5210423485272031
 31
0.0
  0
LINE
  5
4FE
  8
DATA
  6
CONTINUOUS
 62
     7
 10
97.5
 20
131.97104234852719
 30
0.0
 11
99.499999999999986
 21
131.97104234852719
 31
0.0
  0
LINE
  5
4FF
  8
DATA
  6
CONTINUOUS
 62
     7
 10
97.5
 20
124.3710423485272
 30
0.0
 11
97.5
 21
131.97104234852719
 31
0.0
  0
LINE
  5
500
  8
DATA
  6
CONTINUOUS
 62
     7
 10
99.499999999999986
 20
124.3710423485272
 30
0.0
 11
97.5
 21
124.3710423485272
 31
0.0
  0
LINE
  5
501
  8
DATA
  6
CONTINUOUS
 62
     7
 10
99.499999999999986
 20
132.8210423485271
 30
0.0
 11
100.0
 21
132.8210423485271
 31
0.0
  0
LINE
  5
502
  8
DATA
  6
CONTINUOUS
 62
     7
 10
99.499999999999986
 20
123.5210423485272
 30
0.0
 11
99.499999999999986
 21
132.8210423485271
 31
0.0
  0
LINE
  5
503
  8
DATA
  6
CONTINUOUS
 62
     7
 10
100.0
 20
123.5210423485272
 30
0.0
 11
99.499999999999986
 21
123.5210423485272
 31
0.0
  0
ARC
  5
504
  8
DATA
  6
CONTINUOUS
 62
     7
 10
-927.30778026648466
 20
251.46155605329699
 30
0.0
 40
1053.060172699863
 50
347.30277336361149
 51
354.25232414096291
  0
ARC
  5
505
  8
DATA
  6
CONTINUOUS
 62
     7
 10
-150.27353899602269
 20
112.95918758404621
 30
0.0
 40
289.83649755840662
 50
338.58817370342717
 51
359.74314295259938
  0
LINE
  5
506
  8
DATA
  6
CONTINUOUS
 62
     7
 10
146.44688865109879
 20
125.99999999068621
 30
0.0
 11
140.95154158541351
 21
116.7037750560047
 31
0.0
  0
ARC
  5
507
  8
DATA
  6
CONTINUOUS
 62
     7
 10
149.55994561546609
 20
111.6150247128093
 30
0.0
 40
9.9999999999999112
 50
149.4110746410737
 51
179.74314295259961
  0
LINE
  5
508
  8
DATA
  6
CONTINUOUS
 62
     7
 10
221.39396661151841
 20
20.0
 30
0.0
 11
287.39396661151841
 21
20.0
 31
0.0
  0
LINE
  5
509
  8
DATA
  6
CONTINUOUS
 62
     7
 10
221.69396661151839
 20
120.0
 30
0.0
 11
263.98563969832242
 21
120.0
 31
0.0
  0
LINE
  5
50A
  8
DATA
  6
CONTINUOUS
 62
     7
 10
219.89396661151841
 20
21.5
 30
0.0
 11
219.89396661151841
 21
134.84108354691179
 31
0.0
  0
LINE
  5
50B
  8
DATA
  6
CONTINUOUS
 62
     7
 10
288.89396661151841
 20
21.5
 30
0.0
 11
288.89396661151841
 21
122.8
 31
0.0
  0
LINE
  5
50C
  8
DATA
  6
CONTINUOUS
 62
     7
 10
221.69396661151839
 20
20.300000004470348
 30
0.0
 11
287.09396661151828
 21
20.300000004470348
 31
0.0
  0
LINE
  5
50D
  8
DATA
  6
CONTINUOUS
 62
     7
 10
220.19396661151839
 20
21.800000004470348
 30
0.0
 11
220.19396661151839
 21
118.5
 31
0.0
  0
LINE
  5
50E
  8
DATA
  6
CONTINUOUS
 62
     7
 10
288.59396661151828
 20
21.800000004470348
 30
0.0
 11
288.59396661151828
 21
122.5
 31
0.0
  0
CIRCLE
  5
50F
  8
DATA
  6
CONTINUOUS
 62
     7
 10
225.39444881657249
 20
13.17104234852718
 30
0.0
 40
3.8000000000000109
  0
CIRCLE
  5
510
  8
DATA
  6
CONTINUOUS
 62
     7
 10
225.39444881657249
 20
13.17104234852718
 30
0.0
 40
4.6500000000000048
  0
CIRCLE
  5
511
  8
DATA
  6
CONTINUOUS
 62
     7
 10
283.39444881657249
 20
13.17104234852718
 30
0.0
 40
3.8000000000000109
  0
CIRCLE
  5
512
  8
DATA
  6
CONTINUOUS
 62
     7
 10
283.39444881657249
 20
13.17104234852718
 30
0.0
 40
4.6500000000000048
  0
CIRCLE
  5
513
  8
DATA
  6
CONTINUOUS
 62
     7
 10
212.88632845852609
 20
128.17104234852721
 30
0.0
 40
3.8000000000000109
  0
CIRCLE
  5
514
  8
DATA
  6
CONTINUOUS
 62
     7
 10
212.88632845852609
 20
128.17104234852721
 30
0.0
 40
4.6500000000000048
  0
CIRCLE
  5
515
  8
DATA
  6
CONTINUOUS
 62
     7
 10
295.88632845852612
 20
128.17104234852721
 30
0.0
 40
3.8000000000000109
  0
CIRCLE
  5
516
  8
DATA
  6
CONTINUOUS
 62
     7
 10
295.88632845852612
 20
128.17104234852721
 30
0.0
 40
4.6500000000000048
  0
LINE
  5
517
  8
DATA
  6
CONTINUOUS
 62
     7
 10
271.8022935247144
 20
124.0
 30
0.0
 11
287.09396661151828
 21
124.0
 31
0.0
  0
LINE
  5
518
  8
DATA
  6
CONTINUOUS
 62
     7
 10
265.649740286998
 20
120.5038491169864
 30
0.0
 11
270.13819293603871
 21
123.4961508830135
 31
0.0
  0
POLYLINE
  5
519
  8
DATA
  6
CONTINUOUS
 62
     7
 66
     1
 10
0.0
 20
0.0
 30
0.0
 70
   129
  0
VERTEX
  5
721
  8
DATA
  6
CONTINUOUS
 62
     7
 10
235.38937684392701
 20
110.0
 30
0.0
  0
VERTEX
  5
722
  8
DATA
  6
CONTINUOUS
 62
     7
 10
273.38937684392698
 20
110.0
 30
0.0
  0
VERTEX
  5
723
  8
DATA
  6
CONTINUOUS
 62
     7
 10
273.38937684392698
 20
110.0
 30
0.0
 42
-0.4142135623730951
  0
VERTEX
  5
724
  8
DATA
  6
CONTINUOUS
 62
     7
 10
274.38937684392698
 20
109.0
 30
0.0
  0
VERTEX
  5
725
  8
DATA
  6
CONTINUOUS
 62
     7
 10
274.38937684392698
 20
85.999999999999986
 30
0.0
  0
VERTEX
  5
726
  8
DATA
  6
CONTINUOUS
 62
     7
 10
274.38937684392698
 20
85.999999999999986
 30
0.0
 42
-0.4142135623730951
  0
VERTEX
  5
727
  8
DATA
  6
CONTINUOUS
 62
     7
 10
273.38937684392698
 20
84.999999999999986
 30
0.0
  0
VERTEX
  5
728
  8
DATA
  6
CONTINUOUS
 62
     7
 10
235.38937684392701
 20
85.0
 30
0.0
  0
VERTEX
  5
729
  8
DATA
  6
CONTINUOUS
 62
     7
 10
235.38937684392701
 20
85.0
 30
0.0
 42
-0.4142135623730951
  0
VERTEX
  5
72A
  8
DATA
  6
CONTINUOUS
 62
     7
 10
234.3893768439269
 20
86.0
 30
0.0
  0
VERTEX
  5
72B
  8
DATA
  6
CONTINUOUS
 62
     7
 10
234.3893768439269
 20
109.0
 30
0.0
  0
VERTEX
  5
72C
  8
DATA
  6
CONTINUOUS
 62
     7
 10
234.3893768439269
 20
109.0
 30
0.0
 42
-0.4142135623730879
  0
VERTEX
  5
72D
  8
DATA
  6
CONTINUOUS
 62
     7
 10
235.38937684392701
 20
110.0
 30
0.0
  0
SEQEND
  5
72E
  8
DATA
  6
CONTINUOUS
 62
     7
  0
LINE
  5
528
  8
DATA
  6
CONTINUOUS
 62
     7
 10
238.8893768439269
 20
90.0
 30
0.0
 11
269.88937684392698
 21
90.0
 31
0.0
  0
LINE
  5
529
  8
DATA
  6
CONTINUOUS
 62
     7
 10
238.8893768439269
 20
105.0
 30
0.0
 11
269.88937684392698
 21
105.0
 31
0.0
  0
LINE
  5
52A
  8
DATA
  6
CONTINUOUS
 62
     7
 10
237.88937684392701
 20
91.0
 30
0.0
 11
237.88937684392701
 21
104.0
 31
0.0
  0
LINE
  5
52B
  8
DATA
  6
CONTINUOUS
 62
     7
 10
270.88937684392698
 20
104.0
 30
0.0
 11
270.88937684392698
 21
91.0
 31
0.0
  0
ARC
  5
52C
  8
DATA
  6
CONTINUOUS
 62
     7
 10
238.8893768439269
 20
104.0
 30
0.0
 40
1.0
 50
90.0
 51
180.0
  0
ARC
  5
52D
  8
DATA
  6
CONTINUOUS
 62
     7
 10
238.8893768439269
 20
91.0
 30
0.0
 40
1.0
 50
180.0
 51
270.0
  0
ARC
  5
52E
  8
DATA
  6
CONTINUOUS
 62
     7
 10
269.88937684392698
 20
91.0
 30
0.0
 40
1.0
 50
270.0
 51
0.0
  0
ARC
  5
52F
  8
DATA
  6
CONTINUOUS
 62
     7
 10
269.88937684392698
 20
104.0
 30
0.0
 40
1.0
 50
0.0
 51
90.0
  0
LINE
  5
530
  8
DATA
  6
CONTINUOUS
 62
     7
 10
284.89396661151841
 20
65.0
 30
0.0
 11
282.89396661151841
 21
65.0
 31
0.0
  0
LINE
  5
531
  8
DATA
  6
CONTINUOUS
 62
     7
 10
284.89396661151841
 20
73.0
 30
0.0
 11
282.89396661151841
 21
73.0
 31
0.0
  0
LINE
  5
532
  8
DATA
  6
CONTINUOUS
 62
     7
 10
285.89396661151829
 20
66.0
 30
0.0
 11
285.89396661151829
 21
72.0
 31
0.0
  0
LINE
  5
533
  8
DATA
  6
CONTINUOUS
 62
     7
 10
281.89396661151841
 20
66.0
 30
0.0
 11
281.89396661151841
 21
72.0
 31
0.0
  0
ARC
  5
534
  8
DATA
  6
CONTINUOUS
 62
     7
 10
282.89396661151841
 20
72.0
 30
0.0
 40
1.0
 50
90.0
 51
180.0
  0
ARC
  5
535
  8
DATA
  6
CONTINUOUS
 62
     7
 10
284.89396661151841
 20
72.0
 30
0.0
 40
1.0
 50
0.0
 51
90.0
  0
ARC
  5
536
  8
DATA
  6
CONTINUOUS
 62
     7
 10
282.89396661151841
 20
66.0
 30
0.0
 40
1.0
 50
180.0
 51
270.0
  0
ARC
  5
537
  8
DATA
  6
CONTINUOUS
 62
     7
 10
284.89396661151841
 20
66.0
 30
0.0
 40
1.0
 50
270.0
 51
0.0
  0
CIRCLE
  5
538
  8
DATA
  6
CONTINUOUS
 62
     7
 10
297.0033080016301
 20
80.0
 30
0.0
 40
2.75
  0
LINE
  5
539
  8
DATA
  6
CONTINUOUS
 62
     7
 10
295.74997149936968
 20
80.0
 30
0.0
 11
298.25664450389041
 21
80.0
 31
0.0
  0
LINE
  5
53A
  8
DATA
  6
CONTINUOUS
 62
     7
 10
297.0033080016301
 20
78.746663497739704
 30
0.0
 11
297.0033080016301
 21
81.253336502260296
 31
0.0
  0
TEXT
  5
53B
  8
DATA
 62
     7
 10
225.106715525683
 20
115.91954921673241
 30
0.0
 40
2.4432625925286069
  1
OFF MUTE ON
 41
0.7
 11
225.106715525683
 21
118.362811809261
 31
0.0
 73
     3
1001
ACADANNOTATIVE
1000
AnnotativeData
1002
{
1070
     1
1070
     0
1002
}
  0
LINE
  5
53C
  8
DATA
  6
CONTINUOUS
 62
     7
 10
219.89396661151841
 20
52.0
 30
0.0
 11
210.89396661151841
 21
52.0
 31
0.0
  0
LINE
  5
53D
  8
DATA
  6
CONTINUOUS
 62
     7
 10
219.89396661151841
 20
87.0
 30
0.0
 11
210.89396661151841
 21
87.0
 31
0.0
  0
LINE
  5
53E
  8
DATA
  6
CONTINUOUS
 62
     7
 10
209.89396661151841
 20
53.0
 30
0.0
 11
209.89396661151841
 21
86.0
 31
0.0
  0
POLYLINE
  5
53F
  8
DATA
  6
CONTINUOUS
 62
     7
 66
     1
 10
0.0
 20
0.0
 30
0.0
 70
   129
  0
VERTEX
  5
72F
  8
DATA
  6
CONTINUOUS
 62
     7
 10
208.89396661151841
 20
78.0
 30
0.0
  0
VERTEX
  5
730
  8
DATA
  6
CONTINUOUS
 62
     7
 10
209.89396661151841
 20
78.0
 30
0.0
  0
VERTEX
  5
731
  8
DATA
  6
CONTINUOUS
 62
     7
 10
209.89396661151841
 20
61.0
 30
0.0
  0
VERTEX
  5
732
  8
DATA
  6
CONTINUOUS
 62
     7
 10
208.89396661151841
 20
61.0
 30
0.0
  0
VERTEX
  5
733
  8
DATA
  6
CONTINUOUS
 62
     7
 10
208.89396661151841
 20
61.0
 30
0.0
 42
-0.4142135623730951
  0
VERTEX
  5
734
  8
DATA
  6
CONTINUOUS
 62
     7
 10
207.89396661151841
 20
62.0
 30
0.0
  0
VERTEX
  5
735
  8
DATA
  6
CONTINUOUS
 62
     7
 10
207.89396661151841
 20
77.0
 30
0.0
  0
VERTEX
  5
736
  8
DATA
  6
CONTINUOUS
 62
     7
 10
207.89396661151841
 20
77.000000000000014
 30
0.0
 42
-0.414213562373093
  0
VERTEX
  5
737
  8
DATA
  6
CONTINUOUS
 62
     7
 10
208.89396661151841
 20
78.0
 30
0.0
  0
SEQEND
  5
738
  8
DATA
  6
CONTINUOUS
 62
     7
  0
LINE
  5
54A
  8
DATA
  6
CONTINUOUS
 62
     7
 10
215.89396661151841
 20
52.0
 30
0.0
 11
215.89396661151841
 21
87.0
 31
0.0
  0
POLYLINE
  5
54B
  8
DATA
  6
CONTINUOUS
 62
     7
 66
     1
 10
0.0
 20
0.0
 30
0.0
 70
   129
  0
VERTEX
  5
739
  8
DATA
  6
CONTINUOUS
 62
     7
 10
212.89396661151841
 20
79.0
 30
0.0
  0
VERTEX
  5
73A
  8
DATA
  6
CONTINUOUS
 62
     7
 10
215.89396661151841
 20
79.0
 30
0.0
  0
VERTEX
  5
73B
  8
DATA
  6
CONTINUOUS
 62
     7
 10
215.89396661151841
 20
60.0
 30
0.0
  0
VERTEX
  5
73C
  8
DATA
  6
CONTINUOUS
 62
     7
 10
212.89396661151841
 20
60.0
 30
0.0
  0
VERTEX
  5
73D
  8
DATA
  6
CONTINUOUS
 62
     7
 10
212.89396661151829
 20
60.0
 30
0.0
 42
-0.4142135623730868
  0
VERTEX
  5
73E
  8
DATA
  6
CONTINUOUS
 62
     7
 10
211.89396661151841
 20
61.0
 30
0.0
  0
VERTEX
  5
73F
  8
DATA
  6
CONTINUOUS
 62
     7
 10
211.89396661151841
 20
77.999999999999972
 30
0.0
  0
VERTEX
  5
740
  8
DATA
  6
CONTINUOUS
 62
     7
 10
211.89396661151841
 20
78.000000000000071
 30
0.0
 42
-0.4142135623730806
  0
VERTEX
  5
741
  8
DATA
  6
CONTINUOUS
 62
     7
 10
212.89396661151841
 20
79.0
 30
0.0
  0
SEQEND
  5
742
  8
DATA
  6
CONTINUOUS
 62
     7
  0
LINE
  5
556
  8
DATA
  6
CONTINUOUS
 62
     7
 10
221.05564016543099
 20
65.619044671000935
 30
0.0
 11
221.05564016543099
 21
73.380955328999093
 31
0.0
  0
LINE
  5
557
  8
DATA
  6
CONTINUOUS
 62
     7
 10
229.2398322186277
 20
70.39442719099992
 30
0.0
 11
223.4759001961275
 21
73.27639320225002
 31
0.0
  0
LINE
  5
558
  8
DATA
  6
CONTINUOUS
 62
     7
 10
229.2398322186277
 20
68.60557280900008
 30
0.0
 11
223.4759001961275
 21
65.72360679774998
 31
0.0
  0
LINE
  5
559
  8
DATA
  6
CONTINUOUS
 62
     7
 10
222.02868660062751
 20
66.6180339887499
 30
0.0
 11
222.02868660062751
 21
72.3819660112501
 31
0.0
  0
ARC
  5
55A
  8
DATA
  6
CONTINUOUS
 62
     7
 10
210.89396661151841
 20
86.0
 30
0.0
 40
1.0
 50
90.0
 51
180.0
  0
ARC
  5
55B
  8
DATA
  6
CONTINUOUS
 62
     7
 10
210.89396661151841
 20
53.0
 30
0.0
 40
1.0
 50
180.0
 51
270.0
  0
ARC
  5
55C
  8
DATA
  6
CONTINUOUS
 62
     7
 10
228.79261862312771
 20
69.5
 30
0.0
 40
1.000000000000004
 50
296.56505117707798
 51
63.43494882292201
  0
ARC
  5
55D
  8
DATA
  6
CONTINUOUS
 62
     7
 10
223.02868660062751
 20
72.3819660112501
 30
0.0
 40
1.000000000000004
 50
63.43494882292201
 51
180.0
  0
ARC
  5
55E
  8
DATA
  6
CONTINUOUS
 62
     7
 10
223.02868660062751
 20
66.6180339887499
 30
0.0
 40
1.0
 50
180.0
 51
296.56505117707798
  0
CIRCLE
  5
55F
  8
DATA
  6
CONTINUOUS
 62
     7
 10
213.15425376595769
 20
46.499999999999993
 30
0.0
 40
2.75
  0
LINE
  5
560
  8
DATA
  6
CONTINUOUS
 62
     7
 10
211.90091726369749
 20
46.499999999999993
 30
0.0
 11
214.407590268218
 21
46.499999999999993
 31
0.0
  0
LINE
  5
561
  8
DATA
  6
CONTINUOUS
 62
     7
 10
213.15425376595769
 20
45.246663497739718
 30
0.0
 11
213.15425376595769
 21
47.753336502260247
 31
0.0
  0
LINE
  5
562
  8
DATA
  6
CONTINUOUS
 62
     7
 10
275.18955475914532
 20
144.97307281606089
 30
0.0
 11
275.18955475914532
 21
124.3
 31
0.0
  0
LINE
  5
563
  8
DATA
  6
CONTINUOUS
 62
     7
 10
282.18955475914532
 20
144.15702105720209
 30
0.0
 11
282.18955475914532
 21
124.3
 31
0.0
  0
LINE
  5
564
  8
DATA
  6
CONTINUOUS
 62
     7
 10
231.89396661151841
 20
33.0
 30
0.0
 11
276.89396661151841
 21
33.0
 31
0.0
  0
LINE
  5
565
  8
DATA
  6
CONTINUOUS
 62
     7
 10
231.89396661151841
 20
73.0
 30
0.0
 11
276.89396661151852
 21
73.0
 31
0.0
  0
LINE
  5
566
  8
DATA
  6
CONTINUOUS
 62
     7
 10
231.89396661151841
 20
73.000000000000014
 30
0.0
 11
231.89396661151841
 21
33.000000000000007
 31
0.0
  0
LINE
  5
567
  8
DATA
  6
CONTINUOUS
 62
     7
 10
276.89396661151841
 20
73.000000000000014
 30
0.0
 11
276.89396661151841
 21
33.0
 31
0.0
  0
ARC
  5
568
  8
DATA
  6
CONTINUOUS
 62
     7
 10
221.69396661151839
 20
21.800000004470348
 30
0.0
 40
1.5
 50
180.0
 51
270.0
  0
ARC
  5
569
  8
DATA
  6
CONTINUOUS
 62
     7
 10
221.39396661151841
 20
21.5
 30
0.0
 40
1.5
 50
180.0
 51
270.0
  0
ARC
  5
56A
  8
DATA
  6
CONTINUOUS
 62
     7
 10
287.09396661151828
 20
21.800000004470348
 30
0.0
 40
1.5
 50
270.0
 51
0.0
  0
ARC
  5
56B
  8
DATA
  6
CONTINUOUS
 62
     7
 10
287.39396661151841
 20
21.5
 30
0.0
 40
1.5
 50
270.0
 51
0.0
  0
LINE
  5
56C
  8
DATA
  6
CONTINUOUS
 62
     7
 10
274.88955475914531
 20
124.3
 30
0.0
 11
275.18955475914532
 21
124.3
 31
0.0
  0
LINE
  5
56D
  8
DATA
  6
CONTINUOUS
 62
     7
 10
282.18955475914532
 20
124.3
 30
0.0
 11
287.39396661151841
 21
124.3
 31
0.0
  0
ARC
  5
56E
  8
DATA
  6
CONTINUOUS
 62
     7
 10
287.09396661151828
 20
122.5
 30
0.0
 40
1.5
 50
0.0
 51
90.0
  0
ARC
  5
56F
  8
DATA
  6
CONTINUOUS
 62
     7
 10
287.39396661151841
 20
122.8
 30
0.0
 40
1.5
 50
0.0
 51
90.0
  0
ARC
  5
570
  8
DATA
  6
CONTINUOUS
 62
     7
 10
254.5
 20
-69.930227077367405
 30
0.0
 40
208.93022706805371
 50
84.399576383161474
 51
99.183726889981997
  0
LINE
  5
571
  8
DATA
  6
CONTINUOUS
 62
     7
 10
274.88955475914531
 20
138.00270884052
 30
0.0
 11
274.88955475914531
 21
124.3
 31
0.0
  0
ARC
  5
572
  8
DATA
  6
CONTINUOUS
 62
     7
 10
221.39396661151841
 20
134.84108354691179
 30
0.0
 40
1.499999999999974
 50
99.183726889981443
 51
180.0
  0
ARC
  5
573
  8
DATA
  6
CONTINUOUS
 62
     7
 10
254.3774505186274
 20
297.5559306974223
 30
0.0
 40
296.09595631695481
 50
265.69761942693373
 51
274.3104720903446
  0
ARC
  5
574
  8
DATA
  6
CONTINUOUS
 62
     7
 10
234.00227878831919
 20
26.725327063558542
 30
0.0
 40
24.499999999997449
 50
184.4148132487268
 51
265.69761942694009
  0
ARC
  5
575
  8
DATA
  6
CONTINUOUS
 62
     7
 10
215.78973730857851
 20
125.85603800222719
 30
0.0
 40
14.6999999999991
 50
101.9763204658003
 51
184.4148132487268
  0
LINE
  5
576
  8
DATA
  6
CONTINUOUS
 62
     7
 10
201.133353914228
 20
124.7244789901635
 30
0.0
 11
209.5749731310695
 21
24.83939537678576
 31
0.0
  0
ARC
  5
577
  8
DATA
  6
CONTINUOUS
 62
     7
 10
274.99772121168093
 20
26.725327063558542
 30
0.0
 40
24.499999999997449
 50
274.30238057305979
 51
355.58518675127328
  0
ARC
  5
578
  8
DATA
  6
CONTINUOUS
 62
     7
 10
293.21026269142158
 20
125.85603800222719
 30
0.0
 40
14.6999999999991
 50
355.58518675127328
 51
78.02367953419963
  0
LINE
  5
579
  8
DATA
  6
CONTINUOUS
 62
     7
 10
307.866646085772
 20
124.7244789901635
 30
0.0
 11
299.4250268689305
 21
24.83939537678576
 31
0.0
  0
ARC
  5
57A
  8
DATA
  6
CONTINUOUS
 62
     7
 10
254.5
 20
-60.211622794695423
 30
0.0
 40
204.75162252669261
 50
78.231523188015544
 51
82.227799715910479
  0
ARC
  5
57B
  8
DATA
  6
CONTINUOUS
 62
     7
 10
254.5
 20
-60.211622794695423
 30
0.0
 40
204.75162252669261
 50
84.969706973169167
 51
101.7684768119844
  0
LINE
  5
57C
  8
DATA
  6
CONTINUOUS
 62
     7
 10
285.84552145136638
 20
143.63525422977261
 30
0.0
 11
285.84552145136638
 21
142.12642407799521
 31
0.0
  0
LINE
  5
57D
  8
DATA
  6
CONTINUOUS
 62
     7
 10
272.4531201550509
 20
145.227225970576
 30
0.0
 11
272.4531201550509
 21
143.75139445110699
 31
0.0
  0
ARC
  5
57E
  8
DATA
  6
CONTINUOUS
 62
     7
 10
221.69396661151839
 20
118.5
 30
0.0
 40
1.5
 50
90.0
 51
180.0
  0
ARC
  5
57F
  8
DATA
  6
CONTINUOUS
 62
     7
 10
263.98563969832242
 20
123.0
 30
0.0
 40
3.0
 50
270.0
 51
303.69006752597932
  0
ARC
  5
580
  8
DATA
  6
CONTINUOUS
 62
     7
 10
271.8022935247144
 20
121.0
 30
0.0
 40
3.0
 50
90.0
 51
123.6900675259793
  0
ARC
  5
581
  8
DATA
  6
CONTINUOUS
 62
     7
 10
-0.9257856115311113
 20
-44.058307233559638
 30
0.0
 40
49.778740512382427
 50
211.40875146472439
 51
242.14294564951089
  0
ARC
  5
582
  8
DATA
  6
CONTINUOUS
 62
     7
 10
9.9456092428041671
 20
-44.058307233559638
 30
0.0
 40
49.778740512382441
 50
297.85705435048902
 51
328.5912485352755
  0
ARC
  5
583
  8
DATA
  6
CONTINUOUS
 62
     7
 10
4.5051547509810064
 20
30.18202913523038
 30
0.0
 40
119.1137381057829
 50
263.11011393756303
 51
276.88988606243697
  0
LINE
  5
584
  8
DATA
  6
CONTINUOUS
 62
     7
 10
-2.5345413800578731
 20
-80.0
 30
0.0
 11
12.57735026918963
 21
-80.0
 31
0.0
  0
LINE
  5
585
  8
DATA
  6
CONTINUOUS
 62
     7
 10
18.79422863405998
 20
-88.125
 30
0.0
 11
12.57735026918963
 21
-80.0
 31
0.0
  0
LINE
  5
586
  8
DATA
  6
CONTINUOUS
 62
     7
 10
-3.5773502691896648
 20
-80.0
 30
0.0
 11
12.57735026918963
 21
-80.0
 31
0.0
  0
LINE
  5
587
  8
DATA
  6
CONTINUOUS
 62
     7
 10
-4.5865711946839118
 20
-78.456913440180159
 30
0.0
 11
13.586571194683881
 21
-78.456913440180159
 31
0.0
  0
LINE
  5
588
  8
DATA
  6
CONTINUOUS
 62
     7
 10
22.392147285354771
 20
-89.254391901776941
 30
0.0
 11
13.586571194683851
 21
-78.456913440180116
 31
0.0
  0
LINE
  5
589
  8
DATA
  6
CONTINUOUS
 62
     7
 10
-9.7942286340600049
 20
-88.125
 30
0.0
 11
-3.5773502691896648
 21
-80.0
 31
0.0
  0
LINE
  5
58A
  8
DATA
  6
CONTINUOUS
 62
     7
 10
-13.39214728535479
 20
-89.254391901776941
 30
0.0
 11
-4.5865711946838843
 21
-78.456913440180116
 31
0.0
  0
CIRCLE
  5
58B
  8
DATA
  6
CONTINUOUS
 62
     7
 10
4.572132936789842
 20
-87.185307042903233
 30
0.0
 40
1.400000000000005
  0
ARC
  5
58C
  8
DATA
  6
CONTINUOUS
 62
     7
 10
4.4999999999999849
 20
-87.819035340879026
 30
0.0
 40
2.7493348775212141
 50
27.8530740564022
 51
152.14692594359781
  0
ARC
  5
58D
  8
DATA
  6
CONTINUOUS
 62
     7
 10
4.509911815636527
 20
-87.804081947223594
 30
0.0
 40
3.6592761931780751
 50
35.770120489763649
 51
144.51335563089751
  0
ARC
  5
58E
  8
DATA
  6
CONTINUOUS
 62
     7
 10
4.5086091722025108
 20
-88.67922257335907
 30
0.0
 40
5.4328533758145321
 50
48.179650331049032
 51
131.9761730444167
  0
LINE
  5
58F
  8
DATA
  6
CONTINUOUS
 62
     7
 10
-20.29399780685948
 20
34.723827206769613
 30
0.0
 11
-28.094466250967589
 21
143.4418653976515
 31
0.0
  0
LINE
  5
590
  8
DATA
  6
CONTINUOUS
 62
     7
 10
29.304755888448302
 20
34.723827206769613
 30
0.0
 11
37.105103766564739
 21
143.44018502445601
 31
0.0
  0
LINE
  5
591
  8
DATA
  6
CONTINUOUS
 62
     7
 10
-8.3247670305442654
 20
23.582613922612548
 30
0.0
 11
17.33552511213308
 21
23.582613922612548
 31
0.0
  0
ARC
  5
592
  8
DATA
  6
CONTINUOUS
 62
     7
 10
-8.3247670305442654
 20
35.582613922613241
 30
0.0
 40
12.00000000000003
 50
184.10391274352571
 51
270.0
  0
ARC
  5
593
  8
DATA
  6
CONTINUOUS
 62
     7
 10
17.33552511213308
 20
35.582613922613241
 30
0.0
 40
12.00000000000068
 50
270.0
 51
355.89608725647429
  0
LINE
  5
594
  8
DATA
  6
CONTINUOUS
 62
     7
 10
-8.3247670305442654
 20
-76.387848738445314
 30
0.0
 11
17.33552511213308
 21
-76.387848738445314
 31
0.0
  0
ARC
  5
595
  8
DATA
  6
CONTINUOUS
 62
     7
 10
-8.3247670305442654
 20
-64.387848738445314
 30
0.0
 40
11.999999999999989
 50
205.57793455764349
 51
270.0
  0
ARC
  5
596
  8
DATA
  6
CONTINUOUS
 62
     7
 10
17.33552511213308
 20
-64.387848738445314
 30
0.0
 40
12.0
 50
270.0
 51
334.42206544235722
  0
LINE
  5
597
  8
DATA
  6
CONTINUOUS
 62
     7
 10
-26.53331234780633
 20
-55.965239168632372
 30
0.0
 11
-19.148753375301521
 21
-69.568709632978994
 31
0.0
  0
LINE
  5
598
  8
DATA
  6
CONTINUOUS
 62
     7
 10
35.544070429395148
 20
-55.965239168632372
 30
0.0
 11
28.15951145689035
 21
-69.568709632978994
 31
0.0
  0
TEXT
  5
599
  8
DATA
 62
     7
 10
244.06774639231679
 20
-196.86777463923161
 30
0.0
 40
4.8865234374999993
  1
バウンダリー・マイクロホン
 41
0.7
 11
244.06774639231679
 21
-191.98125120173171
 31
0.0
 73
     3
1001
ACADANNOTATIVE
1000
AnnotativeData
1002
{
1070
     1
1070
     0
1002
}
  0
TEXT
  5
59A
  8
DATA
 62
     7
 10
-162.49999999999989
 20
-219.30753666666669
 30
0.0
 40
5.7009440104166673
  1
※仕様及び外観は予告なく変更されることがあります。
 41
0.7
 11
-162.49999999999989
 21
-213.60659265625
 31
0.0
 73
     3
1001
ACADANNOTATIVE
1000
AnnotativeData
1002
{
1070
     1
1070
     0
1002
}
  0
TEXT
  5
59B
  8
DATA
 62
     7
 10
-162.49999999999989
 20
-226.71587
 30
0.0
 40
5.7009440104166673
  1
　また、同一商品でも若干の個体差があることがあります。ご了承ください。
 41
0.7
 11
-162.49999999999989
 21
-221.0149259895833
 31
0.0
 73
     3
1001
ACADANNOTATIVE
1000
AnnotativeData
1002
{
1070
     1
1070
     0
1002
}
  0
ENDSEC
  0
EOF
